999
DXF file: bkg50060511.dxf
999
Pro/ENGINEER 2022024 by Parametric Technology Corporation
  0
SECTION
  2
HEADER
  9
$EXTMAX
 10
594.0
 20
420.0
 30
0.0
  9
$EXTMIN
 10
0.0
 20
0.0
 30
0.0
  9
$LIMMIN
 10
0.0
 20
0.0
  9
$LIMMAX
 10
594.0
 20
420.0
  9
$VIEWCTR
 10
297.0
 20
210.0
  9
$VIEWSIZE
 40
420.0
  9
$CLAYER
  8
0
  9
$LTSCALE
 40
32.67
  9
$CELTYPE
  6
BYLAYER
  9
$DIMSCALE
 40
1.0
  9
$DIMASZ
 40
3.5
  9
$DIMEXO
 40
0.0
  9
$DIMDLI
 40
22.572
  9
$DIMEXE
 40
1.5
  9
$DIMCEN
 40
5.346
  9
$DIMLFAC
 40
1.0
  9
$DIMBLK
  1
_FILLED
  9
$DIMALT
 70
0
  9
$DIMALTF
 40
0.0393700787
  9
$DIMTXT
 40
3.5
  9
$AUNITS
 70
0
  9
$PDMODE
 70
3
  9
$PDSIZE
 40
0.3125
  9
$TILEMODE
 70
1
  0
ENDSEC
  0
SECTION
  2
TABLES
  0
TABLE
  2
LTYPE
 70
6
  0
LTYPE
  2
BYBLOCK
 70
0
  3

 72
65
 73
0
 40
0.0
  0
LTYPE
  2
BYLAYER
 70
0
  3

 72
65
 73
0
 40
0.0
  0
LTYPE
  2
CONTINUOUS
 70
64
  3
Solid line
 72
65
 73
0
 40
0.0
  0
LTYPE
  2
CENTER
 70
64
  3
____ _ ____ _ ____ _ ____ _ ____ _ ____ _ ____
 72
65
 73
4
 40
0.6
 49
0.375
 49
-0.075
 49
0.075
 49
-0.075
  0
LTYPE
  2
HIDDEN
 70
64
  3
- - - - - - - - - - - - - - - - - - - -
 72
65
 73
2
 40
0.2
 49
0.1
 49
-0.1
  0
LTYPE
  2
PHANTOM
 70
64
  3
_____ _ _ _____ _ _ _____ _ _ _____
 72
65
 73
6
 40
0.8
 49
0.45
 49
-0.05
 49
0.1
 49
-0.05
 49
0.1
 49
-0.05
  0
LTYPE
  2
DOT
 70
64
  3
. . . . . . . . . . . . . . . . . . . .
 72
65
 73
2
 40
0.2
 49
0.1
 49
-0.1
  0
LTYPE
  2
DASHED
 70
64
  3
- - - - - - - - - - - - - - - - - - - -
 72
65
 73
2
 40
0.2
 49
0.1
 49
-0.1
  0
ENDTAB
  0
TABLE
  2
LAYER
 70
36
  0
LAYER
  2
0
 70
0
 62
7
  6
CONTINUOUS
  0
LAYER
  2
DEFAULT_1
 70
0
 62
7
  6
CENTER
  0
LAYER
  2
DEFAULT_2
 70
0
 62
8
  6
HIDDEN
  0
LAYER
  2
DEFAULT_3
 70
0
 62
7
  6
PHANTOM
  0
LAYER
  2
01_STARTBEZUEGE
 70
0
 62
7
  6
CONTINUOUS
  0
LAYER
  2
AUSFORMSCHRAEGEN
 70
0
 62
7
  6
CONTINUOUS
  0
LAYER
  2
BEZUGSACHSEN
 70
0
 62
7
  6
CONTINUOUS
  0
LAYER
  2
BEZUGSEBENEN
 70
0
 62
7
  6
CONTINUOUS
  0
LAYER
  2
BEZUGSPUNKTE
 70
0
 62
7
  6
CONTINUOUS
  0
LAYER
  2
BOHRUNGEN
 70
0
 62
7
  6
CONTINUOUS
  0
LAYER
  2
FASEN
 70
0
 62
7
  6
CONTINUOUS
  0
LAYER
  2
FLAECHEN
 70
0
 62
7
  6
CONTINUOUS
  0
LAYER
  2
GEWINDE
 70
0
 62
7
  6
CONTINUOUS
  0
LAYER
  2
GTOL
 70
0
 62
7
  6
CONTINUOUS
  0
LAYER
  2
KONSTRUKTIONSELEMENTE
 70
0
 62
7
  6
CONTINUOUS
  0
LAYER
  2
KOORDINATENSYSTEME
 70
0
 62
7
  6
CONTINUOUS
  0
LAYER
  2
KURVEN
 70
0
 62
7
  6
CONTINUOUS
  0
LAYER
  2
NOTIZ
 70
0
 62
7
  6
CONTINUOUS
  0
LAYER
  2
RUNDUNGEN
 70
0
 62
7
  6
CONTINUOUS
  0
LAYER
  2
SURFACES
 70
0
 62
7
  6
CONTINUOUS
  0
LAYER
  2
VOLUMEN
 70
0
 62
7
  6
CONTINUOUS
  0
LAYER
  2
XSEC_DATUMS
 70
0
 62
7
  6
CONTINUOUS
  0
ENDTAB
  0
TABLE
  2
STYLE
 70
1
  0
STYLE
  2
STANDARD
 70
0
 40
0.0
 41
0.7
 50
0.0
 71
0
 42
0.2
  3
txt
  4

  0
STYLE
  2
TEXTSTYLE_1
 70
0
 40
0.0
 41
0.8
 50
0.0
 71
0
 42
0.2
  3
gdt
  4

  0
ENDTAB
  0
ENDSEC
  0
SECTION
  2
BLOCKS
  0
BLOCK
  8
0
  2
_FILLED
 70
64
 10
0.0
 20
0.0
  0
SOLID
  8
0
  6
BYBLOCK
 62
0
 10
0.0
 20
0.0
 11
-1.0
 21
0.125
 12
-1.0
 22
-0.125
 13
-1.0
 23
-0.125
  0
ENDBLK
  8
0
  6
BYBLOCK
 62
0
  0
ENDSEC
  0
SECTION
  2
ENTITIES
  0
LINE
  8
KONSTRUKTIONSELEMENTE
 62
3
  6
CONTINUOUS
 10
28.0325406591
 20
587.0353369806
 11
28.0325406591
 21
590.0353369806
  0
LINE
  8
BEZUGSACHSEN
 62
3
  6
CONTINUOUS
 10
28.0325406591
 20
590.0353369806
 11
28.0325406591
 21
643.0353369806
  0
LINE
  8
BEZUGSACHSEN
 62
3
  6
CONTINUOUS
 10
28.0325406591
 20
643.0353369806
 11
30.0325406591
 21
645.0353369806
  0
LINE
  8
KONSTRUKTIONSELEMENTE
 62
3
  6
CONTINUOUS
 10
178.0325406591
 20
587.0353369806
 11
178.0325406591
 21
590.0353369806
  0
LINE
  8
FASEN
 62
3
  6
CONTINUOUS
 10
178.0325406591
 20
590.0353369806
 11
178.0325406591
 21
645.0353369806
  0
LINE
  8
FASEN
 62
7
  6
CONTINUOUS
 10
180.0325406591
 20
590.0353369806
 11
180.0325406591
 21
645.0353369806
  0
LINE
  8
KONSTRUKTIONSELEMENTE
 62
7
  6
CONTINUOUS
 10
180.2325406591
 20
641.8353369806
 11
180.2325406591
 21
642.8353369806
  0
LINE
  8
BEZUGSACHSEN
 62
7
  6
CONTINUOUS
 10
180.6061337879
 20
591.0353369806
 11
180.6061337879
 21
589.1353369806
  0
LINE
  8
KONSTRUKTIONSELEMENTE
 62
9
  6
CONTINUOUS
 10
181.0325406591
 20
587.0353369806
 11
181.0325406591
 21
589.0353369806
  0
LINE
  8
KONSTRUKTIONSELEMENTE
 62
7
  6
CONTINUOUS
 10
182.0325406591
 20
642.3353369806
 11
182.0325406591
 21
592.3353369806
  0
LINE
  8
BEZUGSACHSEN
 62
7
  6
CONTINUOUS
 10
190.6061337879
 20
591.0353369806
 11
190.6061337879
 21
589.1353369806
  0
LINE
  8
0
 62
7
  6
CONTINUOUS
 10
192.5325406591
 20
611.8353369806
 11
192.5325406591
 21
624.8353369806
  0
LINE
  8
0
 62
7
  6
CONTINUOUS
 10
206.2325406591
 20
624.8353369806
 11
206.2325406591
 21
641.8353369806
  0
LINE
  8
0
 62
7
  6
CONTINUOUS
 10
215.8725406591
 20
641.5353369806
 11
215.8725406591
 21
589.0353369806
  0
POLYLINE
  8
0
 62
7
  6
CONTINUOUS
 66
1
 70
0
  0
VERTEX
  8
0
 62
7
  6
CONTINUOUS
 10
562.5143059998
 20
589.2072884957
  0
VERTEX
  8
0
 62
7
  6
CONTINUOUS
 10
562.5157373445
 20
589.2075153721
  0
VERTEX
  8
0
 62
7
  6
CONTINUOUS
 10
562.5171113168
 20
589.207739683
  0
VERTEX
  8
0
 62
7
  6
CONTINUOUS
 10
562.5184300947
 20
589.2079616726
  0
VERTEX
  8
0
 62
7
  6
CONTINUOUS
 10
562.5196961251
 20
589.2081815795
  0
VERTEX
  8
0
 62
7
  6
CONTINUOUS
 10
562.5209110079
 20
589.2083996042
  0
VERTEX
  8
0
 62
7
  6
CONTINUOUS
 10
562.5220766181
 20
589.2086159383
  0
VERTEX
  8
0
 62
7
  6
CONTINUOUS
 10
562.5231945782
 20
589.2088308478
  0
VERTEX
  8
0
 62
7
  6
CONTINUOUS
 10
562.5242666651
 20
589.2090445592
  0
VERTEX
  8
0
 62
7
  6
CONTINUOUS
 10
562.5252942908
 20
589.2092573824
  0
VERTEX
  8
0
 62
7
  6
CONTINUOUS
 10
562.526279046
 20
589.209469573
  0
VERTEX
  8
0
 62
7
  6
CONTINUOUS
 10
562.5272221717
 20
589.2096815206
  0
VERTEX
  8
0
 62
7
  6
CONTINUOUS
 10
562.5281251
 20
589.2098935306
  0
VERTEX
  8
0
 62
7
  6
CONTINUOUS
 10
562.5289888493
 20
589.2101061112
  0
VERTEX
  8
0
 62
7
  6
CONTINUOUS
 10
562.5298146628
 20
589.2103196352
  0
VERTEX
  8
0
 62
7
  6
CONTINUOUS
 10
562.5306032989
 20
589.2105348141
  0
VERTEX
  8
0
 62
7
  6
CONTINUOUS
 10
562.5313558377
 20
589.2107521369
  0
VERTEX
  8
0
 62
7
  6
CONTINUOUS
 10
562.5320725583
 20
589.2109726441
  0
VERTEX
  8
0
 62
7
  6
CONTINUOUS
 10
562.5327542994
 20
589.2111969912
  0
VERTEX
  8
0
 62
7
  6
CONTINUOUS
 10
562.533400462
 20
589.2114268221
  0
VERTEX
  8
0
 62
7
  6
CONTINUOUS
 10
562.5340111859
 20
589.2116628117
  0
VERTEX
  8
0
 62
7
  6
CONTINUOUS
 10
562.5345850935
 20
589.2119085229
  0
VERTEX
  8
0
 62
7
  6
CONTINUOUS
 10
562.5351233366
 20
589.2121651949
  0
VERTEX
  8
0
 62
7
  6
CONTINUOUS
 10
562.5356184674
 20
589.2124404733
  0
VERTEX
  8
0
 62
7
  6
CONTINUOUS
 10
562.5360750618
 20
589.2127333772
  0
VERTEX
  8
0
 62
7
  6
CONTINUOUS
 10
562.5364582003
 20
589.2130710259
  0
VERTEX
  8
0
 62
7
  6
CONTINUOUS
 10
562.5367303143
 20
589.2134835607
  0
VERTEX
  8
0
 62
7
  6
CONTINUOUS
 10
562.5369039268
 20
589.2139609345
  0
SEQEND
  0
LINE
  8
0
 62
7
  6
CONTINUOUS
 10
562.5112615647
 20
589.206826271
 11
562.5143059998
 21
589.2072884957
  0
LINE
  8
0
 62
7
  6
CONTINUOUS
 10
562.5079597602
 20
589.2063516591
 11
562.5112615647
 21
589.206826271
  0
LINE
  8
0
 62
7
  6
CONTINUOUS
 10
562.5043816335
 20
589.2058634784
 11
562.5079597602
 21
589.2063516591
  0
LINE
  8
0
 62
7
  6
CONTINUOUS
 10
562.5005058702
 20
589.2053604588
 11
562.5043816335
 21
589.2058634784
  0
LINE
  8
0
 62
7
  6
CONTINUOUS
 10
562.496309394
 20
589.2048413399
 11
562.5005058702
 21
589.2053604588
  0
LINE
  8
0
 62
7
  6
CONTINUOUS
 10
562.4917672796
 20
589.2043048615
 11
562.496309394
 21
589.2048413399
  0
LINE
  8
0
 62
7
  6
CONTINUOUS
 10
562.4868525801
 20
589.2037497473
 11
562.4917672796
 21
589.2043048615
  0
LINE
  8
0
 62
7
  6
CONTINUOUS
 10
562.4815361716
 20
589.2031746949
 11
562.4868525801
 21
589.2037497473
  0
LINE
  8
0
 62
7
  6
CONTINUOUS
 10
562.4727387759
 20
589.2022717942
 11
562.4815361716
 21
589.2031746949
  0
LINE
  8
0
 62
7
  6
CONTINUOUS
 10
562.4628492444
 20
589.2013163153
 11
562.4727387759
 21
589.2022717942
  0
LINE
  8
0
 62
7
  6
CONTINUOUS
 10
562.4517360671
 20
589.2003032905
 11
562.4628492444
 21
589.2013163153
  0
POLYLINE
  8
0
 62
7
  6
CONTINUOUS
 66
1
 70
0
  0
VERTEX
  8
0
 62
7
  6
CONTINUOUS
 10
562.4347529567
 20
589.1988534453
  0
VERTEX
  8
0
 62
7
  6
CONTINUOUS
 10
562.4392505048
 20
589.1992272859
  0
VERTEX
  8
0
 62
7
  6
CONTINUOUS
 10
562.4517360671
 20
589.2003032905
  0
SEQEND
  0
LINE
  8
BEZUGSACHSEN
 62
7
  6
CONTINUOUS
 10
223.0325406591
 20
591.0353369806
 11
223.0325406591
 21
589.1353369806
  0
LINE
  8
BEZUGSACHSEN
 62
7
  6
CONTINUOUS
 10
233.0325406591
 20
591.0353369806
 11
233.0325406591
 21
589.1353369806
  0
LINE
  8
0
 62
7
  6
CONTINUOUS
 10
241.1325406591
 20
589.0353369806
 11
241.1325406591
 21
641.5353369806
  0
LINE
  8
0
 62
7
  6
CONTINUOUS
 10
562.4149048643
 20
589.1972762896
 11
562.4347529567
 21
589.1988534453
  0
LINE
  8
0
 62
7
  6
CONTINUOUS
 10
562.3917326281
 20
589.1955576757
 11
562.4149048643
 21
589.1972762896
  0
LINE
  8
0
 62
7
  6
CONTINUOUS
 10
562.3646869011
 20
589.1936807329
 11
562.3917326281
 21
589.1955576757
  0
LINE
  8
0
 62
7
  6
CONTINUOUS
 10
562.3244458734
 20
589.1910829959
 11
562.3646869011
 21
589.1936807329
  0
LINE
  8
0
 62
7
  6
CONTINUOUS
 10
562.2756279957
 20
589.1881652154
 11
562.3244458734
 21
589.1910829959
  0
LINE
  8
0
 62
7
  6
CONTINUOUS
 10
562.203180985
 20
589.1841749472
 11
562.2756279957
 21
589.1881652154
  0
LINE
  8
0
 62
7
  6
CONTINUOUS
 10
562.094623673
 20
589.1787233199
 11
562.203180985
 21
589.1841749472
  0
LINE
  8
0
 62
7
  6
CONTINUOUS
 10
561.9291485096
 20
589.1712144598
 11
562.094623673
 21
589.1787233199
  0
LINE
  8
0
 62
7
  6
CONTINUOUS
 10
561.6713119651
 20
589.1607203334
 11
561.9291485096
 21
589.1712144598
  0
LINE
  8
0
 62
7
  6
CONTINUOUS
 10
561.208317771
 20
589.1440277467
 11
561.6713119651
 21
589.1607203334
  0
LINE
  8
0
 62
7
  6
CONTINUOUS
 10
560.4242573541
 20
589.1192224207
 11
561.208317771
 21
589.1440277467
  0
LINE
  8
0
 62
7
  6
CONTINUOUS
 10
559.4320789497
 20
589.0913142934
 11
560.4242573541
 21
589.1192224207
  0
LINE
  8
0
 62
7
  6
CONTINUOUS
 10
558.3134005326
 20
589.0626902138
 11
559.4320789497
 21
589.0913142934
  0
LINE
  8
0
 62
7
  6
CONTINUOUS
 10
557.7966867627
 20
589.0502078287
 11
558.3134005326
 21
589.0626902138
  0
LINE
  8
0
 62
9
  6
CONTINUOUS
 10
562.5369039268
 20
589.2139609345
 11
558.0325406591
 21
589.1353369812
  0
LINE
  8
BEZUGSACHSEN
 62
3
  6
CONTINUOUS
 10
675.0325406591
 20
587.0353369806
 11
181.0325406591
 21
587.0353369806
  0
LINE
  8
KONSTRUKTIONSELEMENTE
 62
3
  6
CONTINUOUS
 10
28.0325406591
 20
587.0353369806
 11
181.0325406591
 21
587.0353369806
  0
LINE
  8
KONSTRUKTIONSELEMENTE
 62
7
  6
CONTINUOUS
 10
178.0325406591
 20
589.0353369806
 11
178.2042866789
 21
589.0353369806
  0
LINE
  8
BEZUGSACHSEN
 62
7
  6
CONTINUOUS
 10
181.0325406591
 20
589.0353369806
 11
675.0325406591
 21
589.0353369806
  0
LINE
  8
BEZUGSACHSEN
 62
9
  6
CONTINUOUS
 10
180.6061337879
 20
589.1353369806
 11
190.6061337879
 21
589.1353369806
  0
LINE
  8
BEZUGSACHSEN
 62
9
  6
CONTINUOUS
 10
223.0325406591
 20
589.1353369806
 11
233.0325406591
 21
589.1353369806
  0
LINE
  8
BEZUGSACHSEN
 62
9
  6
CONTINUOUS
 10
375.6061337879
 20
589.1353369806
 11
385.6061337879
 21
589.1353369806
  0
LINE
  8
BEZUGSACHSEN
 62
9
  6
CONTINUOUS
 10
413.0325406591
 20
589.1353369806
 11
416.0325406591
 21
589.1353369806
  0
LINE
  8
BEZUGSACHSEN
 62
9
  6
CONTINUOUS
 10
430.0325406591
 20
589.1353369806
 11
440.0325406591
 21
589.1353369806
  0
LINE
  8
BEZUGSACHSEN
 62
9
  6
CONTINUOUS
 10
594.7482694116
 20
589.1353369806
 11
604.7482694116
 21
589.1353369806
  0
LINE
  8
BEZUGSACHSEN
 62
9
  6
CONTINUOUS
 10
623.0325406591
 20
589.1353369806
 11
633.0325406591
 21
589.1353369806
  0
LINE
  8
KONSTRUKTIONSELEMENTE
 62
9
  6
CONTINUOUS
 10
678.0325406591
 20
590.0353369806
 11
676.0325406591
 21
590.0353369806
  0
LINE
  8
KONSTRUKTIONSELEMENTE
 62
9
  6
CONTINUOUS
 10
28.0325406591
 20
590.0353369806
 11
180.0325406591
 21
590.0353369806
  0
LINE
  8
KONSTRUKTIONSELEMENTE
 62
9
  6
CONTINUOUS
 10
499.025785299
 20
590.0353369806
 11
546.0325406591
 21
590.0353369806
  0
LINE
  8
KONSTRUKTIONSELEMENTE
 62
9
  6
CONTINUOUS
 10
570.6325406591
 20
590.0353369806
 11
594.7482694116
 21
590.0353369806
  0
LINE
  8
KONSTRUKTIONSELEMENTE
 62
9
  6
CONTINUOUS
 10
604.7482694116
 20
590.0353369806
 11
623.0325406591
 21
590.0353369806
  0
LINE
  8
KONSTRUKTIONSELEMENTE
 62
9
  6
CONTINUOUS
 10
633.0325406591
 20
590.0353369806
 11
675.0325406591
 21
590.0353369806
  0
LINE
  8
KONSTRUKTIONSELEMENTE
 62
7
  6
CONTINUOUS
 10
675.0325406591
 20
590.0353369806
 11
676.0325406591
 21
590.0353369806
  0
LINE
  8
BEZUGSACHSEN
 62
7
  6
CONTINUOUS
 10
633.0325406591
 20
591.0353369806
 11
623.0325406591
 21
591.0353369806
  0
LINE
  8
BEZUGSACHSEN
 62
7
  6
CONTINUOUS
 10
604.7482694116
 20
591.0353369806
 11
594.7482694116
 21
591.0353369806
  0
LINE
  8
BEZUGSACHSEN
 62
7
  6
CONTINUOUS
 10
440.0325406591
 20
591.0353369806
 11
430.0325406591
 21
591.0353369806
  0
LINE
  8
BEZUGSACHSEN
 62
7
  6
CONTINUOUS
 10
416.0325406591
 20
591.0353369806
 11
413.0325406591
 21
591.0353369806
  0
LINE
  8
BEZUGSACHSEN
 62
7
  6
CONTINUOUS
 10
385.6061337879
 20
591.0353369806
 11
375.6061337879
 21
591.0353369806
  0
LINE
  8
BEZUGSACHSEN
 62
7
  6
CONTINUOUS
 10
233.0325406591
 20
591.0353369806
 11
223.0325406591
 21
591.0353369806
  0
LINE
  8
BEZUGSACHSEN
 62
7
  6
CONTINUOUS
 10
190.6061337879
 20
591.0353369806
 11
180.6061337879
 21
591.0353369806
  0
LINE
  8
KONSTRUKTIONSELEMENTE
 62
7
  6
CONTINUOUS
 10
676.0325406591
 20
592.0353369806
 11
674.0325406591
 21
592.0353369806
  0
LINE
  8
KONSTRUKTIONSELEMENTE
 62
7
  6
CONTINUOUS
 10
499.025785299
 20
592.0353369806
 11
546.0325406591
 21
592.0353369806
  0
LINE
  8
KONSTRUKTIONSELEMENTE
 62
7
  6
CONTINUOUS
 10
570.6325406591
 20
592.0353369806
 11
673.5325406591
 21
592.0353369806
  0
LINE
  8
KONSTRUKTIONSELEMENTE
 62
7
  6
CONTINUOUS
 10
182.0325406591
 20
592.3353369806
 11
180.0325406591
 21
592.3353369806
  0
LINE
  8
0
 62
7
  6
CONTINUOUS
 10
263.8825406591
 20
635.2353369806
 11
263.8825406591
 21
594.7353369806
  0
LINE
  8
0
 62
7
  6
CONTINUOUS
 10
554.1885251377
 20
637.7490711432
 11
554.2642085372
 21
637.7609965639
  0
LINE
  8
0
 62
7
  6
CONTINUOUS
 10
554.2642085372
 20
637.7609965639
 11
554.346897121
 21
637.7733458154
  0
LINE
  8
0
 62
7
  6
CONTINUOUS
 10
554.346897121
 20
637.7733458154
 11
554.4371642717
 21
637.7861359985
  0
LINE
  8
0
 62
7
  6
CONTINUOUS
 10
554.4371642717
 20
637.7861359985
 11
554.5356500168
 21
637.7993875978
  0
LINE
  8
0
 62
7
  6
CONTINUOUS
 10
554.5356500168
 20
637.7993875978
 11
554.6430479437
 21
637.8131217591
  0
LINE
  8
0
 62
7
  6
CONTINUOUS
 10
554.6430479437
 20
637.8131217591
 11
554.7601093705
 21
637.8273603146
  0
LINE
  8
0
 62
7
  6
CONTINUOUS
 10
554.7601093705
 20
637.8273603146
 11
554.8876534526
 21
637.8421264451
  0
LINE
  8
0
 62
7
  6
CONTINUOUS
 10
554.8876534526
 20
637.8421264451
 11
555.0265485239
 21
637.8574420301
  0
LINE
  8
0
 62
7
  6
CONTINUOUS
 10
555.0265485239
 20
637.8574420301
 11
555.1778337988
 21
637.8733401032
  0
LINE
  8
0
 62
7
  6
CONTINUOUS
 10
555.1778337988
 20
637.8733401032
 11
555.3425916885
 21
637.8898494641
  0
LINE
  8
0
 62
7
  6
CONTINUOUS
 10
555.3425916885
 20
637.8898494641
 11
555.5219147777
 21
637.9069920737
  0
LINE
  8
0
 62
7
  6
CONTINUOUS
 10
555.5219147777
 20
637.9069920737
 11
555.7170174414
 21
637.9247941404
  0
LINE
  8
0
 62
7
  6
CONTINUOUS
 10
555.7170174414
 20
637.9247941404
 11
555.9292254196
 21
637.9432839778
  0
LINE
  8
0
 62
7
  6
CONTINUOUS
 10
555.9292254196
 20
637.9432839778
 11
556.1599556415
 21
637.9624895354
  0
LINE
  8
0
 62
7
  6
CONTINUOUS
 10
556.1599556415
 20
637.9624895354
 11
556.4108404309
 21
637.9824477578
  0
LINE
  8
0
 62
7
  6
CONTINUOUS
 10
556.4108404309
 20
637.9824477578
 11
556.6836452447
 21
638.0031961275
  0
LINE
  8
0
 62
7
  6
CONTINUOUS
 10
556.6836452447
 20
638.0031961275
 11
556.9801721774
 21
638.0247651821
  0
LINE
  8
0
 62
7
  6
CONTINUOUS
 10
556.9801721774
 20
638.0247651821
 11
557.3023612661
 21
638.0471864097
  0
LINE
  8
0
 62
7
  6
CONTINUOUS
 10
557.3023612661
 20
638.0471864097
 11
557.6523831607
 21
638.0704977024
  0
LINE
  8
0
 62
7
  6
CONTINUOUS
 10
263.8825406591
 20
594.7353369806
 11
285.4325406591
 21
594.7353369806
  0
LINE
  8
0
 62
7
  6
CONTINUOUS
 10
310.0325406591
 20
594.7353369806
 11
350.8825406591
 21
594.7353369806
  0
LINE
  8
0
 62
7
  6
CONTINUOUS
 10
393.4193875288
 20
594.7353369806
 11
416.0325406591
 21
594.7353369806
  0
LINE
  8
0
 62
7
  6
CONTINUOUS
 10
440.6325406591
 20
594.7353369806
 11
454.9376774921
 21
594.7353369806
  0
LINE
  8
0
 62
7
  6
CONTINUOUS
 10
648.5325406591
 20
611.8353369806
 11
570.6325406591
 21
611.8353369806
  0
LINE
  8
0
 62
7
  6
CONTINUOUS
 10
546.0325406591
 20
611.8353369806
 11
499.025785299
 21
611.8353369806
  0
LINE
  8
0
 62
7
  6
CONTINUOUS
 10
454.9376774921
 20
611.8353369806
 11
440.6325406591
 21
611.8353369806
  0
LINE
  8
0
 62
7
  6
CONTINUOUS
 10
416.0325406591
 20
611.8353369806
 11
410.814214346
 21
611.8353369806
  0
LINE
  8
0
 62
7
  6
CONTINUOUS
 10
350.8825406591
 20
611.8353369806
 11
310.0325406591
 21
611.8353369806
  0
LINE
  8
0
 62
7
  6
CONTINUOUS
 10
285.4325406591
 20
611.8353369806
 11
263.8825406591
 21
611.8353369806
  0
LINE
  8
0
 62
7
  6
CONTINUOUS
 10
182.0325406591
 20
611.8353369806
 11
192.5325406591
 21
611.8353369806
  0
LINE
  8
0
 62
7
  6
CONTINUOUS
 10
663.5325406591
 20
611.8353369806
 11
674.0325406591
 21
611.8353369806
  0
LINE
  8
0
 62
9
  6
CONTINUOUS
 10
558.0325406591
 20
589.1353369812
 11
553.5281773913
 21
589.2139609345
  0
LINE
  8
0
 62
7
  6
CONTINUOUS
 10
557.7966867627
 20
589.0615865498
 11
557.1917544409
 21
589.0767129771
  0
LINE
  8
0
 62
7
  6
CONTINUOUS
 10
557.1917544409
 20
589.0767129771
 11
556.6725423348
 21
589.0902584851
  0
LINE
  8
0
 62
7
  6
CONTINUOUS
 10
556.6725423348
 20
589.0902584851
 11
556.1256213119
 21
589.105216149
  0
LINE
  8
0
 62
7
  6
CONTINUOUS
 10
556.1256213119
 20
589.105216149
 11
555.6733878221
 21
589.1182554858
  0
LINE
  8
0
 62
7
  6
CONTINUOUS
 10
555.6733878221
 20
589.1182554858
 11
555.2992588287
 21
589.1296346886
  0
LINE
  8
0
 62
7
  6
CONTINUOUS
 10
555.2992588287
 20
589.1296346886
 11
554.9346383099
 21
589.1414049103
  0
LINE
  8
0
 62
7
  6
CONTINUOUS
 10
554.9346383099
 20
589.1414049103
 11
554.6440846855
 21
589.1514337684
  0
LINE
  8
0
 62
7
  6
CONTINUOUS
 10
554.6440846855
 20
589.1514337684
 11
554.3788547012
 21
589.1612978212
  0
LINE
  8
0
 62
7
  6
CONTINUOUS
 10
554.3788547012
 20
589.1612978212
 11
554.1755424634
 21
589.1695218063
  0
LINE
  8
0
 62
7
  6
CONTINUOUS
 10
554.1755424634
 20
589.1695218063
 11
554.0006187493
 21
589.1772931638
  0
LINE
  8
0
 62
7
  6
CONTINUOUS
 10
554.0006187493
 20
589.1772931638
 11
553.8856134698
 21
589.1829373938
  0
LINE
  8
0
 62
7
  6
CONTINUOUS
 10
553.8856134698
 20
589.1829373938
 11
553.8087118031
 21
589.1870697235
  0
LINE
  8
0
 62
7
  6
CONTINUOUS
 10
553.8087118031
 20
589.1870697235
 11
553.7475557747
 21
589.190655484
  0
LINE
  8
0
 62
7
  6
CONTINUOUS
 10
553.7475557747
 20
589.190655484
 11
553.7063042323
 21
589.1932859643
  0
LINE
  8
0
 62
7
  6
CONTINUOUS
 10
553.7063042323
 20
589.1932859643
 11
553.6785593613
 21
589.1951862784
  0
LINE
  8
0
 62
7
  6
CONTINUOUS
 10
553.6785593613
 20
589.1951862784
 11
553.6547631346
 21
589.1969266337
  0
LINE
  8
0
 62
7
  6
CONTINUOUS
 10
553.6547631346
 20
589.1969266337
 11
553.6343588381
 21
589.1985239677
  0
LINE
  8
0
 62
7
  6
CONTINUOUS
 10
553.6343588381
 20
589.1985239677
 11
553.620991307
 21
589.1996373662
  0
LINE
  8
0
 62
7
  6
CONTINUOUS
 10
553.620991307
 20
589.1996373662
 11
553.6090887187
 21
589.2006845147
  0
LINE
  8
0
 62
7
  6
CONTINUOUS
 10
553.6090887187
 20
589.2006845147
 11
553.5984954842
 21
589.2016707374
  0
LINE
  8
0
 62
7
  6
CONTINUOUS
 10
553.5984954842
 20
589.2016707374
 11
553.5890620059
 21
589.2026020357
  0
LINE
  8
0
 62
7
  6
CONTINUOUS
 10
553.5890620059
 20
589.2026020357
 11
553.5806648855
 21
589.2034831976
  0
LINE
  8
0
 62
7
  6
CONTINUOUS
 10
285.4325406591
 20
641.5353369806
 11
285.4325406591
 21
589.0353369806
  0
LINE
  8
0
 62
7
  6
CONTINUOUS
 10
557.6523831607
 20
638.0704977024
 11
558.0325406591
 21
638.0947354661
  0
LINE
  8
0
 62
7
  6
CONTINUOUS
 10
648.5325406591
 20
624.8353369806
 11
570.6325406591
 21
624.8353369806
  0
LINE
  8
0
 62
7
  6
CONTINUOUS
 10
546.0325406591
 20
624.8353369806
 11
499.025785299
 21
624.8353369806
  0
LINE
  8
0
 62
7
  6
CONTINUOUS
 10
454.9376774921
 20
624.8353369806
 11
440.6325406591
 21
624.8353369806
  0
LINE
  8
0
 62
7
  6
CONTINUOUS
 10
416.0325406591
 20
624.8353369806
 11
410.814214346
 21
624.8353369806
  0
LINE
  8
0
 62
7
  6
CONTINUOUS
 10
350.8825406591
 20
624.8353369806
 11
310.0325406591
 21
624.8353369806
  0
LINE
  8
0
 62
7
  6
CONTINUOUS
 10
285.4325406591
 20
624.8353369806
 11
263.8825406591
 21
624.8353369806
  0
LINE
  8
0
 62
7
  6
CONTINUOUS
 10
206.2325406591
 20
624.8353369806
 11
192.5325406591
 21
624.8353369806
  0
LINE
  8
0
 62
7
  6
CONTINUOUS
 10
649.8325406591
 20
624.8353369806
 11
663.5325406591
 21
624.8353369806
  0
LINE
  8
0
 62
7
  6
CONTINUOUS
 10
454.9376774921
 20
635.2353369806
 11
440.6325406591
 21
635.2353369806
  0
LINE
  8
0
 62
7
  6
CONTINUOUS
 10
416.0325406591
 20
635.2353369806
 11
393.4193875288
 21
635.2353369806
  0
LINE
  8
0
 62
7
  6
CONTINUOUS
 10
350.8825406591
 20
635.2353369806
 11
310.0325406591
 21
635.2353369806
  0
LINE
  8
0
 62
7
  6
CONTINUOUS
 10
285.4325406591
 20
635.2353369806
 11
263.8825406591
 21
635.2353369806
  0
LINE
  8
0
 62
9
  6
CONTINUOUS
 10
553.5281773913
 20
637.5353369806
 11
562.5369039268
 21
637.5353369806
  0
LINE
  8
0
 62
7
  6
CONTINUOUS
 10
570.6325406591
 20
641.5353369806
 11
546.0325406591
 21
641.5353369806
  0
LINE
  8
0
 62
7
  6
CONTINUOUS
 10
206.2325406591
 20
641.5353369806
 11
499.025785299
 21
641.5353369806
  0
LINE
  8
0
 62
7
  6
CONTINUOUS
 10
674.0325406591
 20
641.8353369806
 11
649.8325406591
 21
641.8353369806
  0
LINE
  8
0
 62
7
  6
CONTINUOUS
 10
206.2325406591
 20
641.8353369806
 11
182.0325406591
 21
641.8353369806
  0
LINE
  8
KONSTRUKTIONSELEMENTE
 62
3
  6
CONTINUOUS
 10
180.2325406591
 20
641.8353369806
 11
675.8325406591
 21
641.8353369806
  0
LINE
  8
KONSTRUKTIONSELEMENTE
 62
7
  6
CONTINUOUS
 10
674.0325406591
 20
642.0353369806
 11
676.0325406591
 21
642.0353369806
  0
LINE
  8
KONSTRUKTIONSELEMENTE
 62
7
  6
CONTINUOUS
 10
180.0325406591
 20
642.3353369806
 11
182.0325406591
 21
642.3353369806
  0
LINE
  8
KONSTRUKTIONSELEMENTE
 62
7
  6
CONTINUOUS
 10
180.0325406591
 20
642.8353369806
 11
675.8325406591
 21
642.8353369806
  0
LINE
  8
FASEN
 62
7
  6
CONTINUOUS
 10
180.0325406591
 20
643.0353369806
 11
178.0325406591
 21
643.0353369806
  0
LINE
  8
BEZUGSACHSEN
 62
7
  6
CONTINUOUS
 10
676.0325406591
 20
643.0353369806
 11
678.0325406591
 21
643.0353369806
  0
LINE
  8
KONSTRUKTIONSELEMENTE
 62
7
  6
CONTINUOUS
 10
676.0325406591
 20
645.0353369806
 11
180.0325406591
 21
645.0353369806
  0
LINE
  8
FASEN
 62
7
  6
CONTINUOUS
 10
180.0325406591
 20
645.0353369806
 11
178.0325406591
 21
645.0353369806
  0
LINE
  8
KONSTRUKTIONSELEMENTE
 62
3
  6
CONTINUOUS
 10
178.0325406591
 20
645.0353369806
 11
30.0325406591
 21
645.0353369806
  0
LINE
  8
BEZUGSACHSEN
 62
7
  6
CONTINUOUS
 10
676.0325406591
 20
645.0353369806
 11
678.0325406591
 21
645.0353369806
  0
LINE
  8
0
 62
7
  6
CONTINUOUS
 10
553.5806648855
 20
589.2034831976
 11
553.5755874837
 21
589.2040450433
  0
LINE
  8
0
 62
7
  6
CONTINUOUS
 10
553.5755874837
 20
589.2040450433
 11
553.5708917268
 21
589.2045879326
  0
LINE
  8
0
 62
7
  6
CONTINUOUS
 10
553.5708917268
 20
589.2045879326
 11
553.5665501419
 21
589.2051131385
  0
LINE
  8
0
 62
7
  6
CONTINUOUS
 10
553.5665501419
 20
589.2051131385
 11
553.5625373107
 21
589.2056219137
  0
LINE
  8
0
 62
7
  6
CONTINUOUS
 10
553.5625373107
 20
589.2056219137
 11
553.558829713
 21
589.2061155032
  0
LINE
  8
0
 62
7
  6
CONTINUOUS
 10
553.558829713
 20
589.2061155032
 11
553.5554055981
 21
589.2065951573
  0
POLYLINE
  8
0
 62
7
  6
CONTINUOUS
 66
1
 70
0
  0
VERTEX
  8
0
 62
7
  6
CONTINUOUS
 10
553.5554055981
 20
589.2065951573
  0
VERTEX
  8
0
 62
7
  6
CONTINUOUS
 10
553.5522448394
 20
589.2070621516
  0
VERTEX
  8
0
 62
7
  6
CONTINUOUS
 10
553.5507573025
 20
589.2072913132
  0
VERTEX
  8
0
 62
7
  6
CONTINUOUS
 10
553.549329049
 20
589.2075177731
  0
VERTEX
  8
0
 62
7
  6
CONTINUOUS
 10
553.5479583029
 20
589.2077416217
  0
VERTEX
  8
0
 62
7
  6
CONTINUOUS
 10
553.5466425574
 20
589.2079631545
  0
VERTEX
  8
0
 62
7
  6
CONTINUOUS
 10
553.545379291
 20
589.2081826202
  0
VERTEX
  8
0
 62
7
  6
CONTINUOUS
 10
553.5441667731
 20
589.2084002496
  0
VERTEX
  8
0
 62
7
  6
CONTINUOUS
 10
553.5430029042
 20
589.2086162781
  0
VERTEX
  8
0
 62
7
  6
CONTINUOUS
 10
553.5418862699
 20
589.2088309398
  0
VERTEX
  8
0
 62
7
  6
CONTINUOUS
 10
553.5408152418
 20
589.2090444393
  0
VERTEX
  8
0
 62
7
  6
CONTINUOUS
 10
553.5397883626
 20
589.2092571004
  0
VERTEX
  8
0
 62
7
  6
CONTINUOUS
 10
553.538804031
 20
589.209469186
  0
VERTEX
  8
0
 62
7
  6
CONTINUOUS
 10
553.5378610515
 20
589.2096810832
  0
VERTEX
  8
0
 62
7
  6
CONTINUOUS
 10
553.5369580289
 20
589.2098930952
  0
VERTEX
  8
0
 62
7
  6
CONTINUOUS
 10
553.5360939602
 20
589.2101057352
  0
VERTEX
  8
0
 62
7
  6
CONTINUOUS
 10
553.5352676223
 20
589.2103193779
  0
VERTEX
  8
0
 62
7
  6
CONTINUOUS
 10
553.534478279
 20
589.2105347412
  0
VERTEX
  8
0
 62
7
  6
CONTINUOUS
 10
553.533724871
 20
589.210752317
  0
VERTEX
  8
0
 62
7
  6
CONTINUOUS
 10
553.5330071444
 20
589.2109731577
  0
VERTEX
  8
0
 62
7
  6
CONTINUOUS
 10
553.5323243106
 20
589.21119791
  0
VERTEX
  8
0
 62
7
  6
CONTINUOUS
 10
553.5316769156
 20
589.2114282818
  0
VERTEX
  8
0
 62
7
  6
CONTINUOUS
 10
553.5310646642
 20
589.2116650327
  0
VERTEX
  8
0
 62
7
  6
CONTINUOUS
 10
553.5304892913
 20
589.2119116537
  0
VERTEX
  8
0
 62
7
  6
CONTINUOUS
 10
553.5299497147
 20
589.2121695091
  0
VERTEX
  8
0
 62
7
  6
CONTINUOUS
 10
553.5294540905
 20
589.2124457391
  0
VERTEX
  8
0
 62
7
  6
CONTINUOUS
 10
553.5289989306
 20
589.2127390026
  0
VERTEX
  8
0
 62
7
  6
CONTINUOUS
 10
553.5286180843
 20
589.2130761087
  0
VERTEX
  8
0
 62
7
  6
CONTINUOUS
 10
553.5283483236
 20
589.2134867146
  0
VERTEX
  8
0
 62
7
  6
CONTINUOUS
 10
553.5281773913
 20
589.2139609345
  0
SEQEND
  0
LINE
  8
0
 62
7
  6
CONTINUOUS
 10
310.0325406591
 20
641.5353369806
 11
310.0325406591
 21
589.0353369806
  0
LINE
  8
0
 62
7
  6
CONTINUOUS
 10
558.4126981575
 20
638.0704977024
 11
558.0325406591
 21
638.0947354661
  0
LINE
  8
0
 62
7
  6
CONTINUOUS
 10
558.762720052
 20
638.0471864097
 11
558.4126981575
 21
638.0704977024
  0
LINE
  8
0
 62
7
  6
CONTINUOUS
 10
559.0849091407
 20
638.0247651821
 11
558.762720052
 21
638.0471864097
  0
LINE
  8
0
 62
7
  6
CONTINUOUS
 10
559.3814360734
 20
638.0031961275
 11
559.0849091407
 21
638.0247651821
  0
LINE
  8
0
 62
7
  6
CONTINUOUS
 10
559.6542408872
 20
637.9824477578
 11
559.3814360734
 21
638.0031961275
  0
LINE
  8
0
 62
7
  6
CONTINUOUS
 10
559.9051256767
 20
637.9624895354
 11
559.6542408872
 21
637.9824477578
  0
LINE
  8
0
 62
7
  6
CONTINUOUS
 10
560.1358558986
 20
637.9432839778
 11
559.9051256767
 21
637.9624895354
  0
LINE
  8
0
 62
7
  6
CONTINUOUS
 10
560.3480638768
 20
637.9247941403
 11
560.1358558986
 21
637.9432839778
  0
LINE
  8
0
 62
7
  6
CONTINUOUS
 10
560.5431665404
 20
637.9069920737
 11
560.3480638768
 21
637.9247941403
  0
LINE
  8
0
 62
7
  6
CONTINUOUS
 10
560.7224896297
 20
637.8898494641
 11
560.5431665404
 21
637.9069920737
  0
LINE
  8
0
 62
7
  6
CONTINUOUS
 10
560.8872475193
 20
637.8733401032
 11
560.7224896297
 21
637.8898494641
  0
LINE
  8
0
 62
7
  6
CONTINUOUS
 10
561.0385327942
 20
637.8574420301
 11
560.8872475193
 21
637.8733401032
  0
LINE
  8
0
 62
7
  6
CONTINUOUS
 10
561.1774278655
 20
637.8421264451
 11
561.0385327942
 21
637.8574420301
  0
LINE
  8
0
 62
7
  6
CONTINUOUS
 10
561.3049719476
 20
637.8273603146
 11
561.1774278655
 21
637.8421264451
  0
LINE
  8
0
 62
7
  6
CONTINUOUS
 10
561.4220333744
 20
637.8131217591
 11
561.3049719476
 21
637.8273603146
  0
LINE
  8
0
 62
7
  6
CONTINUOUS
 10
350.8825406591
 20
594.7353369806
 11
350.8825406591
 21
635.2353369806
  0
LINE
  8
0
 62
7
  6
CONTINUOUS
 10
354.6345805807
 20
641.5353369806
 11
354.6345805807
 21
589.0353369806
  0
LINE
  8
0
 62
7
  6
CONTINUOUS
 10
561.5294313014
 20
637.7993875978
 11
561.4220333744
 21
637.8131217591
  0
LINE
  8
0
 62
7
  6
CONTINUOUS
 10
561.6279170464
 20
637.7861359985
 11
561.5294313014
 21
637.7993875978
  0
LINE
  8
0
 62
7
  6
CONTINUOUS
 10
561.7181841971
 20
637.7733458154
 11
561.6279170464
 21
637.7861359985
  0
LINE
  8
0
 62
7
  6
CONTINUOUS
 10
561.8008727809
 20
637.7609965639
 11
561.7181841971
 21
637.7733458154
  0
LINE
  8
BEZUGSACHSEN
 62
7
  6
CONTINUOUS
 10
375.6061337879
 20
591.0353369806
 11
375.6061337879
 21
589.1353369806
  0
LINE
  8
BEZUGSACHSEN
 62
7
  6
CONTINUOUS
 10
385.6061337879
 20
591.0353369806
 11
385.6061337879
 21
589.1353369806
  0
LINE
  8
0
 62
7
  6
CONTINUOUS
 10
393.4193875288
 20
635.2353369806
 11
393.4193875288
 21
594.7353369806
  0
LINE
  8
0
 62
7
  6
CONTINUOUS
 10
410.814214346
 20
635.2353369806
 11
410.814214346
 21
594.7353369806
  0
LINE
  8
BEZUGSACHSEN
 62
7
  6
CONTINUOUS
 10
413.0325406591
 20
589.1353369806
 11
413.0325406591
 21
591.0353369806
  0
LINE
  8
0
 62
7
  6
CONTINUOUS
 10
416.0325406591
 20
589.0353369806
 11
416.0325406591
 21
641.5353369806
  0
LINE
  8
BEZUGSACHSEN
 62
7
  6
CONTINUOUS
 10
430.0325406591
 20
591.0353369806
 11
430.0325406591
 21
589.1353369806
  0
LINE
  8
BEZUGSACHSEN
 62
7
  6
CONTINUOUS
 10
440.0325406591
 20
591.0353369806
 11
440.0325406591
 21
589.1353369806
  0
LINE
  8
0
 62
7
  6
CONTINUOUS
 10
440.6325406591
 20
589.0353369806
 11
440.6325406591
 21
641.5353369806
  0
LINE
  8
0
 62
7
  6
CONTINUOUS
 10
454.9376774921
 20
594.7353369806
 11
454.9376774921
 21
635.2353369806
  0
LINE
  8
0
 62
7
  6
CONTINUOUS
 10
481.6309584818
 20
589.0353369806
 11
481.6309584818
 21
641.5353369806
  0
LINE
  8
0
 62
7
  6
CONTINUOUS
 10
499.025785299
 20
589.0353369806
 11
499.025785299
 21
641.5353369806
  0
LINE
  8
0
 62
7
  6
CONTINUOUS
 10
546.0325406591
 20
589.0353369806
 11
546.0325406591
 21
641.5353369806
  0
POLYLINE
  8
0
 62
7
  6
CONTINUOUS
 66
1
 70
0
  0
VERTEX
  8
0
 62
7
  6
CONTINUOUS
 10
562.5369039268
 20
637.5353369806
  0
VERTEX
  8
0
 62
7
  6
CONTINUOUS
 10
562.53678735
 20
637.5383266063
  0
VERTEX
  8
0
 62
7
  6
CONTINUOUS
 10
562.5363703152
 20
637.5414105283
  0
VERTEX
  8
0
 62
7
  6
CONTINUOUS
 10
562.5356646136
 20
637.5445912613
  0
VERTEX
  8
0
 62
7
  6
CONTINUOUS
 10
562.5346348712
 20
637.5478612613
  0
VERTEX
  8
0
 62
7
  6
CONTINUOUS
 10
562.5332582922
 20
637.5512127571
  0
VERTEX
  8
0
 62
7
  6
CONTINUOUS
 10
562.5315089333
 20
637.5546489441
  0
VERTEX
  8
0
 62
7
  6
CONTINUOUS
 10
562.5293541476
 20
637.5581787535
  0
VERTEX
  8
0
 62
7
  6
CONTINUOUS
 10
562.5267912506
 20
637.5617772057
  0
VERTEX
  8
0
 62
7
  6
CONTINUOUS
 10
562.5238075371
 20
637.5654243523
  0
VERTEX
  8
0
 62
7
  6
CONTINUOUS
 10
562.5204004222
 20
637.5691140305
  0
VERTEX
  8
0
 62
7
  6
CONTINUOUS
 10
562.5165644572
 20
637.5728340245
  0
VERTEX
  8
0
 62
7
  6
CONTINUOUS
 10
562.512295528
 20
637.5765825443
  0
VERTEX
  8
0
 62
7
  6
CONTINUOUS
 10
562.5075890779
 20
637.5803541202
  0
VERTEX
  8
0
 62
7
  6
CONTINUOUS
 10
562.5024409852
 20
637.5841475747
  0
VERTEX
  8
0
 62
7
  6
CONTINUOUS
 10
562.4968483729
 20
637.5879594122
  0
VERTEX
  8
0
 62
7
  6
CONTINUOUS
 10
562.4908029495
 20
637.5917911175
  0
VERTEX
  8
0
 62
7
  6
CONTINUOUS
 10
562.4842988903
 20
637.595642463
  0
VERTEX
  8
0
 62
7
  6
CONTINUOUS
 10
562.4773259177
 20
637.5995150906
  0
VERTEX
  8
0
 62
7
  6
CONTINUOUS
 10
562.4698784927
 20
637.6034088531
  0
VERTEX
  8
0
 62
7
  6
CONTINUOUS
 10
562.4619365752
 20
637.6073288905
  0
VERTEX
  8
0
 62
7
  6
CONTINUOUS
 10
562.4534832864
 20
637.6112799171
  0
VERTEX
  8
0
 62
7
  6
CONTINUOUS
 10
562.4445036037
 20
637.615263063
  0
VERTEX
  8
0
 62
7
  6
CONTINUOUS
 10
562.4349831493
 20
637.6192803285
  0
VERTEX
  8
0
 62
7
  6
CONTINUOUS
 10
562.4249031107
 20
637.6233338179
  0
VERTEX
  8
0
 62
7
  6
CONTINUOUS
 10
562.4142469137
 20
637.6274256005
  0
VERTEX
  8
0
 62
7
  6
CONTINUOUS
 10
562.4029934654
 20
637.6315577807
  0
VERTEX
  8
0
 62
7
  6
CONTINUOUS
 10
562.3911251829
 20
637.6357320811
  0
VERTEX
  8
0
 62
7
  6
CONTINUOUS
 10
562.3786149615
 20
637.6399517162
  0
VERTEX
  8
0
 62
7
  6
CONTINUOUS
 10
562.3654398222
 20
637.6442194838
  0
VERTEX
  8
0
 62
7
  6
CONTINUOUS
 10
562.3515698041
 20
637.648538356
  0
VERTEX
  8
0
 62
7
  6
CONTINUOUS
 10
562.3369762949
 20
637.6529118202
  0
VERTEX
  8
0
 62
7
  6
CONTINUOUS
 10
562.3216322693
 20
637.6573411291
  0
VERTEX
  8
0
 62
7
  6
CONTINUOUS
 10
562.3055120774
 20
637.6618279568
  0
VERTEX
  8
0
 62
7
  6
CONTINUOUS
 10
562.2885829811
 20
637.6663745267
  0
VERTEX
  8
0
 62
7
  6
CONTINUOUS
 10
562.27081553
 20
637.6709829044
  0
VERTEX
  8
0
 62
7
  6
CONTINUOUS
 10
562.252174211
 20
637.6756552371
  0
VERTEX
  8
0
 62
7
  6
CONTINUOUS
 10
562.232626268
 20
637.6803937132
  0
VERTEX
  8
0
 62
7
  6
CONTINUOUS
 10
562.2121339792
 20
637.6852002751
  0
VERTEX
  8
0
 62
7
  6
CONTINUOUS
 10
562.1906640435
 20
637.6900765915
  0
VERTEX
  8
0
 62
7
  6
CONTINUOUS
 10
562.1681704425
 20
637.6950256712
  0
VERTEX
  8
0
 62
7
  6
CONTINUOUS
 10
562.1446131332
 20
637.7000500388
  0
VERTEX
  8
0
 62
7
  6
CONTINUOUS
 10
562.1199408878
 20
637.7051528152
  0
VERTEX
  8
0
 62
7
  6
CONTINUOUS
 10
562.0941039429
 20
637.7103376338
  0
VERTEX
  8
0
 62
7
  6
CONTINUOUS
 10
562.0670578622
 20
637.7156054809
  0
VERTEX
  8
0
 62
7
  6
CONTINUOUS
 10
562.0387606547
 20
637.7209576338
  0
VERTEX
  8
0
 62
7
  6
CONTINUOUS
 10
562.009155221
 20
637.7263968523
  0
VERTEX
  8
0
 62
7
  6
CONTINUOUS
 10
561.9781900264
 20
637.7319255895
  0
VERTEX
  8
0
 62
7
  6
CONTINUOUS
 10
561.9458063863
 20
637.7375460428
  0
VERTEX
  8
0
 62
7
  6
CONTINUOUS
 10
561.9119521936
 20
637.7432600786
  0
VERTEX
  8
0
 62
7
  6
CONTINUOUS
 10
561.8765561804
 20
637.7490711432
  0
VERTEX
  8
0
 62
7
  6
CONTINUOUS
 10
561.8008727809
 20
637.7609965639
  0
SEQEND
  0
LINE
  8
0
 62
7
  6
CONTINUOUS
 10
553.5281773913
 20
589.2139609345
 11
553.5281773913
 21
637.5353369806
  0
LINE
  8
0
 62
7
  6
CONTINUOUS
 10
557.7966867627
 20
589.0615865498
 11
557.7966867627
 21
589.0502078287
  0
LINE
  8
KONSTRUKTIONSELEMENTE
 62
7
  6
CONTINUOUS
 10
558.0325406591
 20
589.1353369812
 11
558.0325406591
 21
637.5353369806
  0
LINE
  8
0
 62
7
  6
CONTINUOUS
 10
558.0325406591
 20
637.5353369806
 11
558.0325406591
 21
638.0947354661
  0
LINE
  8
0
 62
7
  6
CONTINUOUS
 10
562.5369039268
 20
637.5353369806
 11
562.5369039268
 21
589.2139609345
  0
LINE
  8
0
 62
7
  6
CONTINUOUS
 10
570.6325406591
 20
589.0353369806
 11
570.6325406591
 21
641.5353369806
  0
POLYLINE
  8
0
 62
7
  6
CONTINUOUS
 66
1
 70
0
  0
VERTEX
  8
0
 62
7
  6
CONTINUOUS
 10
553.5281773913
 20
637.5353369806
  0
VERTEX
  8
0
 62
7
  6
CONTINUOUS
 10
553.5282939681
 20
637.5383266063
  0
VERTEX
  8
0
 62
7
  6
CONTINUOUS
 10
553.5287110029
 20
637.5414105283
  0
VERTEX
  8
0
 62
7
  6
CONTINUOUS
 10
553.5294167045
 20
637.5445912613
  0
VERTEX
  8
0
 62
7
  6
CONTINUOUS
 10
553.5304464469
 20
637.5478612613
  0
VERTEX
  8
0
 62
7
  6
CONTINUOUS
 10
553.531823026
 20
637.5512127571
  0
VERTEX
  8
0
 62
7
  6
CONTINUOUS
 10
553.5335723848
 20
637.5546489441
  0
VERTEX
  8
0
 62
7
  6
CONTINUOUS
 10
553.5357271705
 20
637.5581787535
  0
VERTEX
  8
0
 62
7
  6
CONTINUOUS
 10
553.5382900675
 20
637.5617772057
  0
VERTEX
  8
0
 62
7
  6
CONTINUOUS
 10
553.541273781
 20
637.5654243523
  0
VERTEX
  8
0
 62
7
  6
CONTINUOUS
 10
553.544680896
 20
637.5691140305
  0
VERTEX
  8
0
 62
7
  6
CONTINUOUS
 10
553.5485168609
 20
637.5728340245
  0
VERTEX
  8
0
 62
7
  6
CONTINUOUS
 10
553.5527857902
 20
637.5765825443
  0
VERTEX
  8
0
 62
7
  6
CONTINUOUS
 10
553.5574922402
 20
637.5803541202
  0
VERTEX
  8
0
 62
7
  6
CONTINUOUS
 10
553.5626403329
 20
637.5841475747
  0
VERTEX
  8
0
 62
7
  6
CONTINUOUS
 10
553.5682329452
 20
637.5879594122
  0
VERTEX
  8
0
 62
7
  6
CONTINUOUS
 10
553.5742783686
 20
637.5917911175
  0
VERTEX
  8
0
 62
7
  6
CONTINUOUS
 10
553.5807824278
 20
637.595642463
  0
VERTEX
  8
0
 62
7
  6
CONTINUOUS
 10
553.5877554004
 20
637.5995150906
  0
VERTEX
  8
0
 62
7
  6
CONTINUOUS
 10
553.5952028254
 20
637.6034088531
  0
VERTEX
  8
0
 62
7
  6
CONTINUOUS
 10
553.6031447429
 20
637.6073288905
  0
VERTEX
  8
0
 62
7
  6
CONTINUOUS
 10
553.6115980317
 20
637.6112799171
  0
VERTEX
  8
0
 62
7
  6
CONTINUOUS
 10
553.6205777144
 20
637.615263063
  0
VERTEX
  8
0
 62
7
  6
CONTINUOUS
 10
553.6300981688
 20
637.6192803285
  0
VERTEX
  8
0
 62
7
  6
CONTINUOUS
 10
553.6401782074
 20
637.6233338179
  0
VERTEX
  8
0
 62
7
  6
CONTINUOUS
 10
553.6508344044
 20
637.6274256005
  0
VERTEX
  8
0
 62
7
  6
CONTINUOUS
 10
553.6620878528
 20
637.6315577807
  0
VERTEX
  8
0
 62
7
  6
CONTINUOUS
 10
553.6739561352
 20
637.6357320811
  0
VERTEX
  8
0
 62
7
  6
CONTINUOUS
 10
553.6864663567
 20
637.6399517162
  0
VERTEX
  8
0
 62
7
  6
CONTINUOUS
 10
553.6996414959
 20
637.6442194838
  0
VERTEX
  8
0
 62
7
  6
CONTINUOUS
 10
553.713511514
 20
637.648538356
  0
VERTEX
  8
0
 62
7
  6
CONTINUOUS
 10
553.7281050233
 20
637.6529118202
  0
VERTEX
  8
0
 62
7
  6
CONTINUOUS
 10
553.7434490488
 20
637.6573411291
  0
VERTEX
  8
0
 62
7
  6
CONTINUOUS
 10
553.7595692407
 20
637.6618279568
  0
VERTEX
  8
0
 62
7
  6
CONTINUOUS
 10
553.776498337
 20
637.6663745267
  0
VERTEX
  8
0
 62
7
  6
CONTINUOUS
 10
553.7942657881
 20
637.6709829044
  0
VERTEX
  8
0
 62
7
  6
CONTINUOUS
 10
553.8129071071
 20
637.6756552371
  0
VERTEX
  8
0
 62
7
  6
CONTINUOUS
 10
553.8324550501
 20
637.6803937132
  0
VERTEX
  8
0
 62
7
  6
CONTINUOUS
 10
553.8529473389
 20
637.6852002751
  0
VERTEX
  8
0
 62
7
  6
CONTINUOUS
 10
553.8744172746
 20
637.6900765915
  0
VERTEX
  8
0
 62
7
  6
CONTINUOUS
 10
553.8969108757
 20
637.6950256712
  0
VERTEX
  8
0
 62
7
  6
CONTINUOUS
 10
553.920468185
 20
637.7000500388
  0
VERTEX
  8
0
 62
7
  6
CONTINUOUS
 10
553.9451404304
 20
637.7051528152
  0
VERTEX
  8
0
 62
7
  6
CONTINUOUS
 10
553.9709773752
 20
637.7103376338
  0
VERTEX
  8
0
 62
7
  6
CONTINUOUS
 10
553.9980234559
 20
637.7156054809
  0
VERTEX
  8
0
 62
7
  6
CONTINUOUS
 10
554.0263206634
 20
637.7209576338
  0
VERTEX
  8
0
 62
7
  6
CONTINUOUS
 10
554.0559260971
 20
637.7263968523
  0
VERTEX
  8
0
 62
7
  6
CONTINUOUS
 10
554.0868912917
 20
637.7319255895
  0
VERTEX
  8
0
 62
7
  6
CONTINUOUS
 10
554.1192749319
 20
637.7375460428
  0
VERTEX
  8
0
 62
7
  6
CONTINUOUS
 10
554.1531291245
 20
637.7432600786
  0
VERTEX
  8
0
 62
7
  6
CONTINUOUS
 10
554.1885251377
 20
637.7490711432
  0
SEQEND
  0
POLYLINE
  8
0
 62
7
  6
CONTINUOUS
 66
1
 70
0
  0
VERTEX
  8
0
 62
7
  6
CONTINUOUS
 10
558.0325406591
 20
589.1353369811
  0
VERTEX
  8
0
 62
7
  6
CONTINUOUS
 10
558.0324563825
 20
589.1335449393
  0
VERTEX
  8
0
 62
7
  6
CONTINUOUS
 10
558.0321660323
 20
589.1317054547
  0
VERTEX
  8
0
 62
7
  6
CONTINUOUS
 10
558.0316776715
 20
589.1298195321
  0
VERTEX
  8
0
 62
7
  6
CONTINUOUS
 10
558.030967111
 20
589.1278841573
  0
VERTEX
  8
0
 62
7
  6
CONTINUOUS
 10
558.0300121746
 20
589.1258887221
  0
VERTEX
  8
0
 62
7
  6
CONTINUOUS
 10
558.028814886
 20
589.1238570126
  0
VERTEX
  8
0
 62
7
  6
CONTINUOUS
 10
558.0273682974
 20
589.1218074718
  0
VERTEX
  8
0
 62
7
  6
CONTINUOUS
 10
558.0256771458
 20
589.119745521
  0
VERTEX
  8
0
 62
7
  6
CONTINUOUS
 10
558.0237428156
 20
589.1176822708
  0
VERTEX
  8
0
 62
7
  6
CONTINUOUS
 10
558.0215684162
 20
589.115619097
  0
VERTEX
  8
0
 62
7
  6
CONTINUOUS
 10
558.0191575067
 20
589.1135612984
  0
VERTEX
  8
0
 62
7
  6
CONTINUOUS
 10
558.0165101226
 20
589.1115082176
  0
VERTEX
  8
0
 62
7
  6
CONTINUOUS
 10
558.0136282899
 20
589.1094613386
  0
VERTEX
  8
0
 62
7
  6
CONTINUOUS
 10
558.0105095968
 20
589.1074195373
  0
VERTEX
  8
0
 62
7
  6
CONTINUOUS
 10
558.0071537941
 20
589.105382578
  0
VERTEX
  8
0
 62
7
  6
CONTINUOUS
 10
558.0035564204
 20
589.1033492789
  0
VERTEX
  8
0
 62
7
  6
CONTINUOUS
 10
557.99971499
 20
589.1013187275
  0
VERTEX
  8
0
 62
7
  6
CONTINUOUS
 10
557.9956233277
 20
589.0992898803
  0
VERTEX
  8
0
 62
7
  6
CONTINUOUS
 10
557.9912769931
 20
589.0972616671
  0
VERTEX
  8
0
 62
7
  6
CONTINUOUS
 10
557.9866682963
 20
589.0952332553
  0
VERTEX
  8
0
 62
7
  6
CONTINUOUS
 10
557.9817910986
 20
589.0932036524
  0
VERTEX
  8
0
 62
7
  6
CONTINUOUS
 10
557.9766363048
 20
589.0911722672
  0
VERTEX
  8
0
 62
7
  6
CONTINUOUS
 10
557.9711962596
 20
589.0891382893
  0
VERTEX
  8
0
 62
7
  6
CONTINUOUS
 10
557.9654605046
 20
589.0871013843
  0
VERTEX
  8
0
 62
7
  6
CONTINUOUS
 10
557.9594199718
 20
589.0850609686
  0
VERTEX
  8
0
 62
7
  6
CONTINUOUS
 10
557.9530628336
 20
589.0830169789
  0
VERTEX
  8
0
 62
7
  6
CONTINUOUS
 10
557.9463786508
 20
589.0809690812
  0
VERTEX
  8
0
 62
7
  6
CONTINUOUS
 10
557.9393541901
 20
589.0789175037
  0
VERTEX
  8
0
 62
7
  6
CONTINUOUS
 10
557.9319776435
 20
589.0768621813
  0
VERTEX
  8
0
 62
7
  6
CONTINUOUS
 10
557.9242342964
 20
589.0748036599
  0
VERTEX
  8
0
 62
7
  6
CONTINUOUS
 10
557.9161109346
 20
589.0727421641
  0
VERTEX
  8
0
 62
7
  6
CONTINUOUS
 10
557.9075912495
 20
589.0706785928
  0
VERTEX
  8
0
 62
7
  6
CONTINUOUS
 10
557.8986605376
 20
589.0686134846
  0
VERTEX
  8
0
 62
7
  6
CONTINUOUS
 10
557.8893007692
 20
589.0665481442
  0
VERTEX
  8
0
 62
7
  6
CONTINUOUS
 10
557.8794956505
 20
589.064483463
  0
VERTEX
  8
0
 62
7
  6
CONTINUOUS
 10
557.8692252706
 20
589.0624212191
  0
VERTEX
  8
0
 62
7
  6
CONTINUOUS
 10
557.8584716186
 20
589.060362708
  0
VERTEX
  8
0
 62
7
  6
CONTINUOUS
 10
557.8472126997
 20
589.0583102693
  0
VERTEX
  8
0
 62
7
  6
CONTINUOUS
 10
557.8354286161
 20
589.0562656678
  0
VERTEX
  8
0
 62
7
  6
CONTINUOUS
 10
557.8230950659
 20
589.0542319233
  0
VERTEX
  8
0
 62
7
  6
CONTINUOUS
 10
557.810177248
 20
589.0522130945
  0
VERTEX
  8
0
 62
7
  6
CONTINUOUS
 10
557.7966867627
 20
589.0502078287
  0
SEQEND
  0
POLYLINE
  8
0
 62
7
  6
CONTINUOUS
 66
1
 70
0
  0
VERTEX
  8
0
 62
7
  6
CONTINUOUS
 10
558.0321938142
 20
589.1320330525
  0
VERTEX
  8
0
 62
7
  6
CONTINUOUS
 10
558.0317443182
 20
589.1303341598
  0
VERTEX
  8
0
 62
7
  6
CONTINUOUS
 10
558.0310918326
 20
589.1286002571
  0
VERTEX
  8
0
 62
7
  6
CONTINUOUS
 10
558.0302173133
 20
589.1268210591
  0
VERTEX
  8
0
 62
7
  6
CONTINUOUS
 10
558.0291210699
 20
589.1250162479
  0
VERTEX
  8
0
 62
7
  6
CONTINUOUS
 10
558.0277950853
 20
589.1231996749
  0
VERTEX
  8
0
 62
7
  6
CONTINUOUS
 10
558.0262452949
 20
589.1213785474
  0
VERTEX
  8
0
 62
7
  6
CONTINUOUS
 10
558.0244735976
 20
589.1195642523
  0
VERTEX
  8
0
 62
7
  6
CONTINUOUS
 10
558.0224840854
 20
589.1177581014
  0
VERTEX
  8
0
 62
7
  6
CONTINUOUS
 10
558.0202810395
 20
589.1159653871
  0
VERTEX
  8
0
 62
7
  6
CONTINUOUS
 10
558.0178657914
 20
589.1141855536
  0
VERTEX
  8
0
 62
7
  6
CONTINUOUS
 10
558.015241552
 20
589.1124202233
  0
VERTEX
  8
0
 62
7
  6
CONTINUOUS
 10
558.012406964
 20
589.1106681544
  0
VERTEX
  8
0
 62
7
  6
CONTINUOUS
 10
558.0093633831
 20
589.1089292937
  0
VERTEX
  8
0
 62
7
  6
CONTINUOUS
 10
558.0061058813
 20
589.1072016986
  0
VERTEX
  8
0
 62
7
  6
CONTINUOUS
 10
558.0026320123
 20
589.10548382
  0
VERTEX
  8
0
 62
7
  6
CONTINUOUS
 10
557.9989356865
 20
589.1037744237
  0
VERTEX
  8
0
 62
7
  6
CONTINUOUS
 10
557.9950118528
 20
589.1020718376
  0
VERTEX
  8
0
 62
7
  6
CONTINUOUS
 10
557.990854949
 20
589.1003758254
  0
VERTEX
  8
0
 62
7
  6
CONTINUOUS
 10
557.9864602215
 20
589.0986857386
  0
VERTEX
  8
0
 62
7
  6
CONTINUOUS
 10
557.9818201931
 20
589.0970011406
  0
VERTEX
  8
0
 62
7
  6
CONTINUOUS
 10
557.9769286784
 20
589.0953214501
  0
VERTEX
  8
0
 62
7
  6
CONTINUOUS
 10
557.9717770479
 20
589.0936464519
  0
VERTEX
  8
0
 62
7
  6
CONTINUOUS
 10
557.9663578443
 20
589.0919757272
  0
VERTEX
  8
0
 62
7
  6
CONTINUOUS
 10
557.9606613657
 20
589.0903093052
  0
VERTEX
  8
0
 62
7
  6
CONTINUOUS
 10
557.9546791145
 20
589.0886470058
  0
VERTEX
  8
0
 62
7
  6
CONTINUOUS
 10
557.9484000201
 20
589.0869890385
  0
VERTEX
  8
0
 62
7
  6
CONTINUOUS
 10
557.9418139813
 20
589.0853353334
  0
VERTEX
  8
0
 62
7
  6
CONTINUOUS
 10
557.9349095917
 20
589.0836865488
  0
VERTEX
  8
0
 62
7
  6
CONTINUOUS
 10
557.9276776088
 20
589.0820432809
  0
VERTEX
  8
0
 62
7
  6
CONTINUOUS
 10
557.9201014391
 20
589.0804056468
  0
VERTEX
  8
0
 62
7
  6
CONTINUOUS
 10
557.912166209
 20
589.0787735312
  0
VERTEX
  8
0
 62
7
  6
CONTINUOUS
 10
557.9038575156
 20
589.077148228
  0
VERTEX
  8
0
 62
7
  6
CONTINUOUS
 10
557.8951612551
 20
589.0755304658
  0
VERTEX
  8
0
 62
7
  6
CONTINUOUS
 10
557.8860616573
 20
589.0739218259
  0
VERTEX
  8
0
 62
7
  6
CONTINUOUS
 10
557.8765442743
 20
589.0723235251
  0
VERTEX
  8
0
 62
7
  6
CONTINUOUS
 10
557.8665910354
 20
589.0707373852
  0
VERTEX
  8
0
 62
7
  6
CONTINUOUS
 10
557.8561856662
 20
589.0691648741
  0
VERTEX
  8
0
 62
7
  6
CONTINUOUS
 10
557.8453083301
 20
589.0676082704
  0
VERTEX
  8
0
 62
7
  6
CONTINUOUS
 10
557.8339409335
 20
589.0660693937
  0
VERTEX
  8
0
 62
7
  6
CONTINUOUS
 10
557.8220619736
 20
589.0645510889
  0
VERTEX
  8
0
 62
7
  6
CONTINUOUS
 10
557.809640475
 20
589.063057239
  0
VERTEX
  8
0
 62
7
  6
CONTINUOUS
 10
557.7966867627
 20
589.0615865498
  0
SEQEND
  0
LINE
  8
BEZUGSACHSEN
 62
7
  6
CONTINUOUS
 10
594.7482694116
 20
591.0353369806
 11
594.7482694116
 21
589.1353369806
  0
LINE
  8
BEZUGSACHSEN
 62
7
  6
CONTINUOUS
 10
604.7482694116
 20
591.0353369806
 11
604.7482694116
 21
589.1353369806
  0
LINE
  8
BEZUGSACHSEN
 62
7
  6
CONTINUOUS
 10
623.0325406591
 20
589.1353369806
 11
623.0325406591
 21
591.0353369806
  0
LINE
  8
BEZUGSACHSEN
 62
7
  6
CONTINUOUS
 10
633.0325406591
 20
589.1353369806
 11
633.0325406591
 21
591.0353369806
  0
LINE
  8
0
 62
7
  6
CONTINUOUS
 10
648.5325406591
 20
641.8353369806
 11
648.5325406591
 21
611.8353369806
  0
LINE
  8
0
 62
7
  6
CONTINUOUS
 10
649.8325406591
 20
641.8353369806
 11
649.8325406591
 21
624.8353369806
  0
LINE
  8
0
 62
7
  6
CONTINUOUS
 10
663.5325406591
 20
624.8353369806
 11
663.5325406591
 21
611.8353369806
  0
LINE
  8
KONSTRUKTIONSELEMENTE
 62
7
  6
CONTINUOUS
 10
673.5325406591
 20
611.8353369806
 11
673.5325406591
 21
592.0353369806
  0
LINE
  8
KONSTRUKTIONSELEMENTE
 62
7
  6
CONTINUOUS
 10
674.0325406591
 20
592.0353369806
 11
674.0325406591
 21
642.0353369806
  0
LINE
  8
KONSTRUKTIONSELEMENTE
 62
9
  6
CONTINUOUS
 10
675.0325406591
 20
587.0353369806
 11
675.0325406591
 21
589.0353369806
  0
LINE
  8
KONSTRUKTIONSELEMENTE
 62
7
  6
CONTINUOUS
 10
675.0325406591
 20
589.0353369806
 11
675.0325406591
 21
590.0353369806
  0
LINE
  8
KONSTRUKTIONSELEMENTE
 62
7
  6
CONTINUOUS
 10
675.8325406591
 20
641.8353369806
 11
675.8325406591
 21
642.8353369806
  0
LINE
  8
BEZUGSACHSEN
 62
7
  6
CONTINUOUS
 10
676.0325406591
 20
590.0353369806
 11
676.0325406591
 21
645.0353369806
  0
LINE
  8
BEZUGSACHSEN
 62
3
  6
CONTINUOUS
 10
678.0325406591
 20
590.0353369806
 11
678.0325406591
 21
645.0353369806
  0
LINE
  8
KONSTRUKTIONSELEMENTE
 62
7
  6
CONTINUOUS
 10
181.0325406591
 20
-124.4277334171
 11
180.0325406591
 21
-124.4277334171
  0
LINE
  8
FASEN
 62
7
  6
CONTINUOUS
 10
180.0325406591
 20
-124.4277334171
 11
178.0325406591
 21
-124.4277334171
  0
LINE
  8
BEZUGSACHSEN
 62
7
  6
CONTINUOUS
 10
181.0325406591
 20
-124.4277334171
 11
675.0325406591
 21
-124.4277334171
  0
LINE
  8
KONSTRUKTIONSELEMENTE
 62
7
  6
CONTINUOUS
 10
675.0325406591
 20
-124.4277334171
 11
676.0325406591
 21
-124.4277334171
  0
LINE
  8
BEZUGSACHSEN
 62
7
  6
CONTINUOUS
 10
676.0325406591
 20
-124.4277334171
 11
678.0325406591
 21
-124.4277334171
  0
LINE
  8
KONSTRUKTIONSELEMENTE
 62
7
  6
CONTINUOUS
 10
180.0325406591
 20
-123.9277334171
 11
676.0325406591
 21
-123.9277334171
  0
LINE
  8
FASEN
 62
7
  6
CONTINUOUS
 10
180.0325406591
 20
-122.4277334171
 11
178.0325406591
 21
-122.4277334171
  0
LINE
  8
BEZUGSACHSEN
 62
7
  6
CONTINUOUS
 10
676.0325406591
 20
-122.4277334171
 11
678.0325406591
 21
-122.4277334171
  0
LINE
  8
BEZUGSACHSEN
 62
7
  6
CONTINUOUS
 10
28.0325406591
 20
522.5722665829
 11
28.0325406591
 21
28.5722665829
  0
LINE
  8
KONSTRUKTIONSELEMENTE
 62
7
  6
CONTINUOUS
 10
28.0325406591
 20
28.5722665829
 11
28.0325406591
 21
27.5722665829
  0
LINE
  8
BEZUGSACHSEN
 62
7
  6
CONTINUOUS
 10
28.0325406591
 20
27.5722665829
 11
28.0325406591
 21
25.5722665829
  0
LINE
  8
KONSTRUKTIONSELEMENTE
 62
7
  6
CONTINUOUS
 10
28.0325406591
 20
522.5722665829
 11
28.0325406591
 21
523.5722665829
  0
LINE
  8
FASEN
 62
7
  6
CONTINUOUS
 10
28.0325406591
 20
523.5722665829
 11
28.0325406591
 21
525.5722665829
  0
LINE
  8
KONSTRUKTIONSELEMENTE
 62
7
  6
CONTINUOUS
 10
28.5325406591
 20
523.5722665829
 11
28.5325406591
 21
27.5722665829
  0
LINE
  8
BEZUGSACHSEN
 62
7
  6
CONTINUOUS
 10
30.0325406591
 20
27.5722665829
 11
30.0325406591
 21
25.5722665829
  0
LINE
  8
FASEN
 62
7
  6
CONTINUOUS
 10
30.0325406591
 20
523.5722665829
 11
30.0325406591
 21
525.5722665829
  0
LINE
  8
KONSTRUKTIONSELEMENTE
 62
3
  6
CONTINUOUS
 10
179.8325406591
 20
25.5722665829
 11
30.0325406591
 21
25.5722665829
  0
LINE
  8
BEZUGSACHSEN
 62
3
  6
CONTINUOUS
 10
28.0325406591
 20
25.5722665829
 11
30.0325406591
 21
25.5722665829
  0
LINE
  8
KONSTRUKTIONSELEMENTE
 62
7
  6
CONTINUOUS
 10
179.8325406591
 20
25.5722665829
 11
180.0325406591
 21
25.5722665829
  0
LINE
  8
BEZUGSACHSEN
 62
7
  6
CONTINUOUS
 10
30.0325406591
 20
27.5722665829
 11
28.0325406591
 21
27.5722665829
  0
LINE
  8
KONSTRUKTIONSELEMENTE
 62
7
  6
CONTINUOUS
 10
30.0325406591
 20
27.5722665829
 11
179.8325406591
 21
27.5722665829
  0
LINE
  8
KONSTRUKTIONSELEMENTE
 62
7
  6
CONTINUOUS
 10
28.5325406591
 20
27.7722665829
 11
180.2325406591
 21
27.7722665829
  0
LINE
  8
KONSTRUKTIONSELEMENTE
 62
9
  6
CONTINUOUS
 10
28.0325406591
 20
28.5722665829
 11
28.5325406591
 21
28.5722665829
  0
LINE
  8
FASEN
 62
3
  6
CONTINUOUS
 10
178.0325406591
 20
-124.4277334171
 11
178.0325406591
 21
-122.4277334171
  0
LINE
  8
KONSTRUKTIONSELEMENTE
 62
3
  6
CONTINUOUS
 10
178.0325406591
 20
-122.4277334171
 11
178.0325406591
 21
25.5722665829
  0
LINE
  8
KONSTRUKTIONSELEMENTE
 62
7
  6
CONTINUOUS
 10
179.5325406591
 20
27.7722665829
 11
179.5325406591
 21
27.5722665829
  0
LINE
  8
KONSTRUKTIONSELEMENTE
 62
7
  6
CONTINUOUS
 10
179.8325406591
 20
25.5722665829
 11
179.8325406591
 21
27.5722665829
  0
LINE
  8
KONSTRUKTIONSELEMENTE
 62
7
  6
CONTINUOUS
 10
180.0325406591
 20
-122.4277334171
 11
180.0325406591
 21
27.7722665829
  0
LINE
  8
FASEN
 62
7
  6
CONTINUOUS
 10
180.0325406591
 20
-122.4277334171
 11
180.0325406591
 21
-124.4277334171
  0
LINE
  8
KONSTRUKTIONSELEMENTE
 62
7
  6
CONTINUOUS
 10
180.2325406591
 20
27.7722665829
 11
180.2325406591
 21
-123.9277334171
  0
LINE
  8
KONSTRUKTIONSELEMENTE
 62
9
  6
CONTINUOUS
 10
181.0325406591
 20
-124.4277334171
 11
181.0325406591
 21
-123.9277334171
  0
LINE
  8
KONSTRUKTIONSELEMENTE
 62
9
  6
CONTINUOUS
 10
28.0325406591
 20
522.5722665829
 11
28.5325406591
 21
522.5722665829
  0
LINE
  8
KONSTRUKTIONSELEMENTE
 62
7
  6
CONTINUOUS
 10
673.5325406591
 20
523.5722665829
 11
673.5325406591
 21
523.3722665829
  0
LINE
  8
KONSTRUKTIONSELEMENTE
 62
9
  6
CONTINUOUS
 10
675.0325406591
 20
-124.4277334171
 11
675.0325406591
 21
-123.9277334171
  0
LINE
  8
KONSTRUKTIONSELEMENTE
 62
7
  6
CONTINUOUS
 10
675.0325406591
 20
523.3722665829
 11
675.0325406591
 21
523.5722665829
  0
LINE
  8
KONSTRUKTIONSELEMENTE
 62
7
  6
CONTINUOUS
 10
675.8325406591
 20
-123.9277334171
 11
675.8325406591
 21
523.3722665829
  0
LINE
  8
BEZUGSACHSEN
 62
7
  6
CONTINUOUS
 10
676.0325406591
 20
-122.4277334171
 11
676.0325406591
 21
-124.4277334171
  0
LINE
  8
KONSTRUKTIONSELEMENTE
 62
7
  6
CONTINUOUS
 10
676.0325406591
 20
-122.4277334171
 11
676.0325406591
 21
523.5722665829
  0
LINE
  8
KONSTRUKTIONSELEMENTE
 62
7
  6
CONTINUOUS
 10
677.8325406591
 20
525.5722665829
 11
677.8325406591
 21
523.5722665829
  0
LINE
  8
BEZUGSACHSEN
 62
3
  6
CONTINUOUS
 10
678.0325406591
 20
-124.4277334171
 11
678.0325406591
 21
-122.4277334171
  0
LINE
  8
KONSTRUKTIONSELEMENTE
 62
3
  6
CONTINUOUS
 10
678.0325406591
 20
-122.4277334171
 11
678.0325406591
 21
523.5722665829
  0
LINE
  8
KONSTRUKTIONSELEMENTE
 62
7
  6
CONTINUOUS
 10
675.8325406591
 20
523.0722665829
 11
676.0325406591
 21
523.0722665829
  0
LINE
  8
KONSTRUKTIONSELEMENTE
 62
7
  6
CONTINUOUS
 10
675.8325406591
 20
523.3722665829
 11
28.5325406591
 21
523.3722665829
  0
LINE
  8
KONSTRUKTIONSELEMENTE
 62
7
  6
CONTINUOUS
 10
678.0325406591
 20
523.5722665829
 11
30.0325406591
 21
523.5722665829
  0
LINE
  8
FASEN
 62
7
  6
CONTINUOUS
 10
30.0325406591
 20
523.5722665829
 11
28.0325406591
 21
523.5722665829
  0
LINE
  8
FASEN
 62
3
  6
CONTINUOUS
 10
28.0325406591
 20
525.5722665829
 11
30.0325406591
 21
525.5722665829
  0
LINE
  8
KONSTRUKTIONSELEMENTE
 62
3
  6
CONTINUOUS
 10
30.0325406591
 20
525.5722665829
 11
677.8325406591
 21
525.5722665829
  0
ARC
  8
KONSTRUKTIONSELEMENTE
 62
3
  6
CONTINUOUS
 10
181.0325406591
 20
590.0353369806
 40
3.0
 50
180.0
 51
270.0
  0
ARC
  8
KONSTRUKTIONSELEMENTE
 62
3
  6
CONTINUOUS
 10
675.0325406591
 20
590.0353369806
 40
3.0
 50
270.0
 51
360.0
  0
ARC
  8
KONSTRUKTIONSELEMENTE
 62
7
  6
CONTINUOUS
 10
181.0325406591
 20
590.0353369806
 40
1.0
 50
180.0
 51
270.0
  0
ARC
  8
KONSTRUKTIONSELEMENTE
 62
7
  6
CONTINUOUS
 10
675.0325406591
 20
590.0353369806
 40
1.0
 50
270.0
 51
360.0
  0
ARC
  8
BEZUGSACHSEN
 62
7
  6
CONTINUOUS
 10
233.1325406591
 20
589.1353369806
 40
0.1
 50
180.0
 51
270.0
  0
ARC
  8
BEZUGSACHSEN
 62
7
  6
CONTINUOUS
 10
222.9325406591
 20
589.1353369806
 40
0.1
 50
270.0
 51
360.0
  0
ARC
  8
BEZUGSACHSEN
 62
7
  6
CONTINUOUS
 10
429.9325406591
 20
589.1353369806
 40
0.1
 50
270.0
 51
360.0
  0
ARC
  8
BEZUGSACHSEN
 62
7
  6
CONTINUOUS
 10
440.1325406591
 20
589.1353369806
 40
0.1
 50
180.0
 51
270.0
  0
ARC
  8
BEZUGSACHSEN
 62
7
  6
CONTINUOUS
 10
633.1325406591
 20
589.1353369806
 40
0.1
 50
180.0
 51
270.0
  0
ARC
  8
BEZUGSACHSEN
 62
7
  6
CONTINUOUS
 10
622.9325406591
 20
589.1353369806
 40
0.1
 50
270.0
 51
360.0
  0
ARC
  8
BEZUGSACHSEN
 62
7
  6
CONTINUOUS
 10
412.9325406591
 20
589.1353369806
 40
0.1
 50
270.0
 51
360.0
  0
ARC
  8
BEZUGSACHSEN
 62
7
  6
CONTINUOUS
 10
375.5061337879
 20
589.1353369806
 40
0.1
 50
270.0
 51
360.0
  0
ARC
  8
BEZUGSACHSEN
 62
7
  6
CONTINUOUS
 10
385.7061337879
 20
589.1353369806
 40
0.1
 50
180.0
 51
270.0
  0
ARC
  8
BEZUGSACHSEN
 62
7
  6
CONTINUOUS
 10
180.5061337879
 20
589.1353369806
 40
0.1
 50
357.5036928984
 51
360.0
  0
ARC
  8
BEZUGSACHSEN
 62
7
  6
CONTINUOUS
 10
190.7061337879
 20
589.1353369806
 40
0.1
 50
180.0
 51
270.0
  0
ARC
  8
BEZUGSACHSEN
 62
7
  6
CONTINUOUS
 10
604.8482694116
 20
589.1353369806
 40
0.1
 50
180.0
 51
270.0
  0
ARC
  8
BEZUGSACHSEN
 62
7
  6
CONTINUOUS
 10
594.6482694116
 20
589.1353369806
 40
0.1
 50
270.0
 51
360.0
  0
ENDSEC
  0
EOF
