999
DXF file: bkg50080511.dxf
999
Pro/ENGINEER 2022024 by Parametric Technology Corporation
  0
SECTION
  2
HEADER
  9
$EXTMAX
 10
594.0
 20
420.0
 30
0.0
  9
$EXTMIN
 10
0.0
 20
0.0
 30
0.0
  9
$LIMMIN
 10
0.0
 20
0.0
  9
$LIMMAX
 10
594.0
 20
420.0
  9
$VIEWCTR
 10
297.0
 20
210.0
  9
$VIEWSIZE
 40
420.0
  9
$CLAYER
  8
0
  9
$LTSCALE
 40
32.67
  9
$CELTYPE
  6
BYLAYER
  9
$DIMSCALE
 40
1.0
  9
$DIMASZ
 40
3.5
  9
$DIMEXO
 40
0.0
  9
$DIMDLI
 40
22.572
  9
$DIMEXE
 40
1.5
  9
$DIMCEN
 40
5.346
  9
$DIMLFAC
 40
1.0
  9
$DIMBLK
  1
_FILLED
  9
$DIMALT
 70
0
  9
$DIMALTF
 40
0.0393700787
  9
$DIMTXT
 40
3.5
  9
$AUNITS
 70
0
  9
$PDMODE
 70
3
  9
$PDSIZE
 40
0.3125
  9
$TILEMODE
 70
1
  0
ENDSEC
  0
SECTION
  2
TABLES
  0
TABLE
  2
LTYPE
 70
6
  0
LTYPE
  2
BYBLOCK
 70
0
  3

 72
65
 73
0
 40
0.0
  0
LTYPE
  2
BYLAYER
 70
0
  3

 72
65
 73
0
 40
0.0
  0
LTYPE
  2
CONTINUOUS
 70
64
  3
Solid line
 72
65
 73
0
 40
0.0
  0
LTYPE
  2
CENTER
 70
64
  3
____ _ ____ _ ____ _ ____ _ ____ _ ____ _ ____
 72
65
 73
4
 40
0.6
 49
0.375
 49
-0.075
 49
0.075
 49
-0.075
  0
LTYPE
  2
HIDDEN
 70
64
  3
- - - - - - - - - - - - - - - - - - - -
 72
65
 73
2
 40
0.2
 49
0.1
 49
-0.1
  0
LTYPE
  2
PHANTOM
 70
64
  3
_____ _ _ _____ _ _ _____ _ _ _____
 72
65
 73
6
 40
0.8
 49
0.45
 49
-0.05
 49
0.1
 49
-0.05
 49
0.1
 49
-0.05
  0
LTYPE
  2
DOT
 70
64
  3
. . . . . . . . . . . . . . . . . . . .
 72
65
 73
2
 40
0.2
 49
0.1
 49
-0.1
  0
LTYPE
  2
DASHED
 70
64
  3
- - - - - - - - - - - - - - - - - - - -
 72
65
 73
2
 40
0.2
 49
0.1
 49
-0.1
  0
ENDTAB
  0
TABLE
  2
LAYER
 70
36
  0
LAYER
  2
0
 70
0
 62
7
  6
CONTINUOUS
  0
LAYER
  2
DEFAULT_1
 70
0
 62
7
  6
CENTER
  0
LAYER
  2
DEFAULT_2
 70
0
 62
8
  6
HIDDEN
  0
LAYER
  2
DEFAULT_3
 70
0
 62
7
  6
PHANTOM
  0
LAYER
  2
01_STARTBEZUEGE
 70
0
 62
7
  6
CONTINUOUS
  0
LAYER
  2
AUSFORMSCHRAEGEN
 70
0
 62
7
  6
CONTINUOUS
  0
LAYER
  2
BEZUGSACHSEN
 70
0
 62
7
  6
CONTINUOUS
  0
LAYER
  2
BEZUGSEBENEN
 70
0
 62
7
  6
CONTINUOUS
  0
LAYER
  2
BEZUGSPUNKTE
 70
0
 62
7
  6
CONTINUOUS
  0
LAYER
  2
BOHRUNGEN
 70
0
 62
7
  6
CONTINUOUS
  0
LAYER
  2
FASEN
 70
0
 62
7
  6
CONTINUOUS
  0
LAYER
  2
FLAECHEN
 70
0
 62
7
  6
CONTINUOUS
  0
LAYER
  2
GEWINDE
 70
0
 62
7
  6
CONTINUOUS
  0
LAYER
  2
GTOL
 70
0
 62
7
  6
CONTINUOUS
  0
LAYER
  2
KONSTRUKTIONSELEMENTE
 70
0
 62
7
  6
CONTINUOUS
  0
LAYER
  2
KOORDINATENSYSTEME
 70
0
 62
7
  6
CONTINUOUS
  0
LAYER
  2
KURVEN
 70
0
 62
7
  6
CONTINUOUS
  0
LAYER
  2
NOTIZ
 70
0
 62
7
  6
CONTINUOUS
  0
LAYER
  2
RUNDUNGEN
 70
0
 62
7
  6
CONTINUOUS
  0
LAYER
  2
SURFACES
 70
0
 62
7
  6
CONTINUOUS
  0
LAYER
  2
VOLUMEN
 70
0
 62
7
  6
CONTINUOUS
  0
LAYER
  2
XSEC_DATUMS
 70
0
 62
7
  6
CONTINUOUS
  0
ENDTAB
  0
TABLE
  2
STYLE
 70
1
  0
STYLE
  2
STANDARD
 70
0
 40
0.0
 41
0.7
 50
0.0
 71
0
 42
0.2
  3
txt
  4

  0
STYLE
  2
TEXTSTYLE_1
 70
0
 40
0.0
 41
0.8
 50
0.0
 71
0
 42
0.2
  3
gdt
  4

  0
ENDTAB
  0
ENDSEC
  0
SECTION
  2
BLOCKS
  0
BLOCK
  8
0
  2
_FILLED
 70
64
 10
0.0
 20
0.0
  0
SOLID
  8
0
  6
BYBLOCK
 62
0
 10
0.0
 20
0.0
 11
-1.0
 21
0.125
 12
-1.0
 22
-0.125
 13
-1.0
 23
-0.125
  0
ENDBLK
  8
0
  6
BYBLOCK
 62
0
  0
ENDSEC
  0
SECTION
  2
ENTITIES
  0
LINE
  8
KONSTRUKTIONSELEMENTE
 62
3
  6
CONTINUOUS
 10
48.8726771117
 20
605.7047499521
 11
48.8726771117
 21
608.7047499521
  0
LINE
  8
BEZUGSACHSEN
 62
3
  6
CONTINUOUS
 10
48.8726771117
 20
608.7047499521
 11
48.8726771117
 21
681.7047499521
  0
LINE
  8
BEZUGSACHSEN
 62
3
  6
CONTINUOUS
 10
48.8726771117
 20
681.7047499521
 11
50.8726771117
 21
683.7047499521
  0
LINE
  8
KONSTRUKTIONSELEMENTE
 62
3
  6
CONTINUOUS
 10
198.8726771117
 20
605.7047499521
 11
198.8726771117
 21
608.7047499521
  0
LINE
  8
FASEN
 62
3
  6
CONTINUOUS
 10
198.8726771117
 20
608.7047499521
 11
198.8726771117
 21
683.7047499521
  0
LINE
  8
FASEN
 62
7
  6
CONTINUOUS
 10
200.8726771117
 20
608.7047499521
 11
200.8726771117
 21
683.7047499521
  0
LINE
  8
KONSTRUKTIONSELEMENTE
 62
7
  6
CONTINUOUS
 10
201.0726771117
 20
680.5047499521
 11
201.0726771117
 21
681.5047499521
  0
LINE
  8
BEZUGSACHSEN
 62
7
  6
CONTINUOUS
 10
201.4462702405
 20
609.7047499521
 11
201.4462702405
 21
607.8047499521
  0
LINE
  8
KONSTRUKTIONSELEMENTE
 62
9
  6
CONTINUOUS
 10
201.8726771117
 20
605.7047499521
 11
201.8726771117
 21
607.7047499521
  0
LINE
  8
KONSTRUKTIONSELEMENTE
 62
7
  6
CONTINUOUS
 10
202.8726771117
 20
681.0047499521
 11
202.8726771117
 21
631.0047499521
  0
LINE
  8
BEZUGSACHSEN
 62
7
  6
CONTINUOUS
 10
211.4462702405
 20
609.7047499521
 11
211.4462702405
 21
607.8047499521
  0
LINE
  8
0
 62
7
  6
CONTINUOUS
 10
213.3726771117
 20
650.5047499521
 11
213.3726771117
 21
663.5047499521
  0
POLYLINE
  8
0
 62
7
  6
CONTINUOUS
 66
1
 70
0
  0
VERTEX
  8
0
 62
7
  6
CONTINUOUS
 10
583.3544408983
 20
607.8767012244
  0
VERTEX
  8
0
 62
7
  6
CONTINUOUS
 10
583.355872442
 20
607.8769281256
  0
VERTEX
  8
0
 62
7
  6
CONTINUOUS
 10
583.3572466011
 20
607.8771524608
  0
VERTEX
  8
0
 62
7
  6
CONTINUOUS
 10
583.3585655538
 20
607.8773744743
  0
VERTEX
  8
0
 62
7
  6
CONTINUOUS
 10
583.3598317479
 20
607.8775944045
  0
VERTEX
  8
0
 62
7
  6
CONTINUOUS
 10
583.3610467834
 20
607.8778124521
  0
VERTEX
  8
0
 62
7
  6
CONTINUOUS
 10
583.3622125357
 20
607.8780288088
  0
VERTEX
  8
0
 62
7
  6
CONTINUOUS
 10
583.3633306273
 20
607.8782437404
  0
VERTEX
  8
0
 62
7
  6
CONTINUOUS
 10
583.3644028353
 20
607.8784574733
  0
VERTEX
  8
0
 62
7
  6
CONTINUOUS
 10
583.3654305717
 20
607.8786703176
  0
VERTEX
  8
0
 62
7
  6
CONTINUOUS
 10
583.3664154272
 20
607.8788825288
  0
VERTEX
  8
0
 62
7
  6
CONTINUOUS
 10
583.367358643
 20
607.8790944964
  0
VERTEX
  8
0
 62
7
  6
CONTINUOUS
 10
583.3682616511
 20
607.8793065258
  0
VERTEX
  8
0
 62
7
  6
CONTINUOUS
 10
583.36912547
 20
607.8795191251
  0
VERTEX
  8
0
 62
7
  6
CONTINUOUS
 10
583.3699513425
 20
607.879732667
  0
VERTEX
  8
0
 62
7
  6
CONTINUOUS
 10
583.3707400271
 20
607.8799478629
  0
VERTEX
  8
0
 62
7
  6
CONTINUOUS
 10
583.3714926037
 20
607.8801652017
  0
VERTEX
  8
0
 62
7
  6
CONTINUOUS
 10
583.3722093507
 20
607.8803857236
  0
VERTEX
  8
0
 62
7
  6
CONTINUOUS
 10
583.3728911069
 20
607.880610084
  0
VERTEX
  8
0
 62
7
  6
CONTINUOUS
 10
583.3735372721
 20
607.880839926
  0
VERTEX
  8
0
 62
7
  6
CONTINUOUS
 10
583.3741479848
 20
607.8810759239
  0
VERTEX
  8
0
 62
7
  6
CONTINUOUS
 10
583.3747218682
 20
607.8813216397
  0
VERTEX
  8
0
 62
7
  6
CONTINUOUS
 10
583.3752600743
 20
607.8815783131
  0
VERTEX
  8
0
 62
7
  6
CONTINUOUS
 10
583.3757551556
 20
607.8818535862
  0
VERTEX
  8
0
 62
7
  6
CONTINUOUS
 10
583.3762116828
 20
607.8821464756
  0
VERTEX
  8
0
 62
7
  6
CONTINUOUS
 10
583.3765947525
 20
607.8824840977
  0
VERTEX
  8
0
 62
7
  6
CONTINUOUS
 10
583.3768668122
 20
607.8828965897
  0
VERTEX
  8
0
 62
7
  6
CONTINUOUS
 10
583.3770403795
 20
607.883373906
  0
SEQEND
  0
POLYLINE
  8
0
 62
7
  6
CONTINUOUS
 66
1
 70
0
  0
VERTEX
  8
0
 62
7
  6
CONTINUOUS
 10
583.3497781143
 20
607.8760032314
  0
VERTEX
  8
0
 62
7
  6
CONTINUOUS
 10
583.3513960281
 20
607.8762389488
  0
VERTEX
  8
0
 62
7
  6
CONTINUOUS
 10
583.3544408983
 20
607.8767012244
  0
SEQEND
  0
LINE
  8
0
 62
7
  6
CONTINUOUS
 10
227.0726771117
 20
663.5047499521
 11
227.0726771117
 21
680.5047499521
  0
LINE
  8
0
 62
7
  6
CONTINUOUS
 10
236.7126771117
 20
680.2047499521
 11
236.7126771117
 21
607.7047499521
  0
LINE
  8
0
 62
7
  6
CONTINUOUS
 10
583.3463401985
 20
607.8755219422
 11
583.3497781143
 21
607.8760032314
  0
LINE
  8
0
 62
7
  6
CONTINUOUS
 10
583.3426154592
 20
607.8750264447
 11
583.3463401985
 21
607.8755219422
  0
LINE
  8
0
 62
7
  6
CONTINUOUS
 10
583.3385817025
 20
607.8745154744
 11
583.3426154592
 21
607.8750264447
  0
LINE
  8
0
 62
7
  6
CONTINUOUS
 10
583.3342149519
 20
607.8739877742
 11
583.3385817025
 21
607.8745154744
  0
LINE
  8
0
 62
7
  6
CONTINUOUS
 10
583.3294892884
 20
607.8734420774
 11
583.3342149519
 21
607.8739877742
  0
LINE
  8
0
 62
7
  6
CONTINUOUS
 10
583.3243766924
 20
607.8728770957
 11
583.3294892884
 21
607.8734420774
  0
LINE
  8
0
 62
7
  6
CONTINUOUS
 10
583.3159154767
 20
607.8719905697
 11
583.3243766924
 21
607.8728770957
  0
LINE
  8
0
 62
7
  6
CONTINUOUS
 10
583.3064022201
 20
607.8710530513
 11
583.3159154767
 21
607.8719905697
  0
LINE
  8
0
 62
7
  6
CONTINUOUS
 10
583.2957108357
 20
607.8700596741
 11
583.3064022201
 21
607.8710530513
  0
LINE
  8
0
 62
7
  6
CONTINUOUS
 10
583.283699419
 20
607.8690052682
 11
583.2957108357
 21
607.8700596741
  0
LINE
  8
0
 62
7
  6
CONTINUOUS
 10
583.2701977621
 20
607.8678833719
 11
583.283699419
 21
607.8690052682
  0
LINE
  8
0
 62
7
  6
CONTINUOUS
 10
583.2495620026
 20
607.8662721387
 11
583.2701977621
 21
607.8678833719
  0
LINE
  8
0
 62
7
  6
CONTINUOUS
 10
583.2254726475
 20
607.8645154299
 11
583.2495620026
 21
607.8662721387
  0
LINE
  8
0
 62
7
  6
CONTINUOUS
 10
583.1896247474
 20
607.8620883132
 11
583.2254726475
 21
607.8645154299
  0
LINE
  8
0
 62
7
  6
CONTINUOUS
 10
583.1461453205
 20
607.8593678203
 11
583.1896247474
 21
607.8620883132
  0
LINE
  8
0
 62
7
  6
CONTINUOUS
 10
583.0815861097
 20
607.8556524112
 11
583.1461453205
 21
607.8593678203
  0
LINE
  8
0
 62
7
  6
CONTINUOUS
 10
583.000280612
 20
607.8513628412
 11
583.0815861097
 21
607.8556524112
  0
LINE
  8
0
 62
7
  6
CONTINUOUS
 10
582.9520493499
 20
607.8489709104
 11
583.000280612
 21
607.8513628412
  0
LINE
  8
BEZUGSACHSEN
 62
7
  6
CONTINUOUS
 10
243.8726771117
 20
609.7047499521
 11
243.8726771117
 21
607.8047499521
  0
LINE
  8
BEZUGSACHSEN
 62
7
  6
CONTINUOUS
 10
253.8726771117
 20
609.7047499521
 11
253.8726771117
 21
607.8047499521
  0
LINE
  8
0
 62
7
  6
CONTINUOUS
 10
261.9726771117
 20
607.7047499521
 11
261.9726771117
 21
680.2047499521
  0
LINE
  8
0
 62
7
  6
CONTINUOUS
 10
582.7927656702
 20
607.8416476526
 11
582.9520493499
 21
607.8489709104
  0
LINE
  8
0
 62
7
  6
CONTINUOUS
 10
582.5445727742
 20
607.8314201038
 11
582.7927656702
 21
607.8416476526
  0
LINE
  8
0
 62
7
  6
CONTINUOUS
 10
582.0988899487
 20
607.8151633483
 11
582.5445727742
 21
607.8314201038
  0
LINE
  8
0
 62
7
  6
CONTINUOUS
 10
581.3441619715
 20
607.7910218963
 11
582.0988899487
 21
607.8151633483
  0
LINE
  8
0
 62
7
  6
CONTINUOUS
 10
580.3892241523
 20
607.7638738681
 11
581.3441619715
 21
607.7910218963
  0
LINE
  8
0
 62
7
  6
CONTINUOUS
 10
579.3128405042
 20
607.7360369287
 11
580.3892241523
 21
607.7638738681
  0
LINE
  8
0
 62
7
  6
CONTINUOUS
 10
578.6368232154
 20
607.7196208002
 11
579.3128405042
 21
607.7360369287
  0
LINE
  8
0
 62
9
  6
CONTINUOUS
 10
583.3770403795
 20
607.883373906
 11
578.8726771117
 21
607.8047499527
  0
LINE
  8
BEZUGSACHSEN
 62
3
  6
CONTINUOUS
 10
695.8726771117
 20
605.7047499521
 11
201.8726771117
 21
605.7047499521
  0
LINE
  8
KONSTRUKTIONSELEMENTE
 62
3
  6
CONTINUOUS
 10
48.8726771117
 20
605.7047499521
 11
201.8726771117
 21
605.7047499521
  0
LINE
  8
KONSTRUKTIONSELEMENTE
 62
7
  6
CONTINUOUS
 10
198.8726771117
 20
607.7047499521
 11
199.0444231315
 21
607.7047499521
  0
LINE
  8
BEZUGSACHSEN
 62
7
  6
CONTINUOUS
 10
201.8726771117
 20
607.7047499521
 11
695.8726771117
 21
607.7047499521
  0
LINE
  8
BEZUGSACHSEN
 62
9
  6
CONTINUOUS
 10
201.4462702405
 20
607.8047499521
 11
211.4462702405
 21
607.8047499521
  0
LINE
  8
BEZUGSACHSEN
 62
9
  6
CONTINUOUS
 10
243.8726771117
 20
607.8047499521
 11
253.8726771117
 21
607.8047499521
  0
LINE
  8
BEZUGSACHSEN
 62
9
  6
CONTINUOUS
 10
396.4462702405
 20
607.8047499521
 11
406.4462702405
 21
607.8047499521
  0
LINE
  8
BEZUGSACHSEN
 62
9
  6
CONTINUOUS
 10
433.8726771117
 20
607.8047499521
 11
436.8726771117
 21
607.8047499521
  0
LINE
  8
BEZUGSACHSEN
 62
9
  6
CONTINUOUS
 10
450.8726771117
 20
607.8047499521
 11
460.8726771117
 21
607.8047499521
  0
LINE
  8
BEZUGSACHSEN
 62
9
  6
CONTINUOUS
 10
615.5884058643
 20
607.8047499521
 11
625.5884058643
 21
607.8047499521
  0
LINE
  8
BEZUGSACHSEN
 62
9
  6
CONTINUOUS
 10
643.8726771117
 20
607.8047499521
 11
653.8726771117
 21
607.8047499521
  0
LINE
  8
KONSTRUKTIONSELEMENTE
 62
9
  6
CONTINUOUS
 10
698.8726771117
 20
608.7047499521
 11
696.8726771117
 21
608.7047499521
  0
LINE
  8
KONSTRUKTIONSELEMENTE
 62
9
  6
CONTINUOUS
 10
48.8726771117
 20
608.7047499521
 11
200.8726771117
 21
608.7047499521
  0
LINE
  8
KONSTRUKTIONSELEMENTE
 62
9
  6
CONTINUOUS
 10
519.8659217517
 20
608.7047499521
 11
566.8726771117
 21
608.7047499521
  0
LINE
  8
KONSTRUKTIONSELEMENTE
 62
9
  6
CONTINUOUS
 10
591.4726771117
 20
608.7047499521
 11
615.5884058643
 21
608.7047499521
  0
LINE
  8
KONSTRUKTIONSELEMENTE
 62
9
  6
CONTINUOUS
 10
625.5884058643
 20
608.7047499521
 11
643.8726771117
 21
608.7047499521
  0
LINE
  8
KONSTRUKTIONSELEMENTE
 62
9
  6
CONTINUOUS
 10
653.8726771117
 20
608.7047499521
 11
695.8726771117
 21
608.7047499521
  0
LINE
  8
KONSTRUKTIONSELEMENTE
 62
7
  6
CONTINUOUS
 10
695.8726771117
 20
608.7047499521
 11
696.8726771117
 21
608.7047499521
  0
LINE
  8
BEZUGSACHSEN
 62
7
  6
CONTINUOUS
 10
653.8726771117
 20
609.7047499521
 11
643.8726771117
 21
609.7047499521
  0
LINE
  8
BEZUGSACHSEN
 62
7
  6
CONTINUOUS
 10
625.5884058643
 20
609.7047499521
 11
615.5884058643
 21
609.7047499521
  0
LINE
  8
BEZUGSACHSEN
 62
7
  6
CONTINUOUS
 10
460.8726771117
 20
609.7047499521
 11
450.8726771117
 21
609.7047499521
  0
LINE
  8
BEZUGSACHSEN
 62
7
  6
CONTINUOUS
 10
436.8726771117
 20
609.7047499521
 11
433.8726771117
 21
609.7047499521
  0
LINE
  8
BEZUGSACHSEN
 62
7
  6
CONTINUOUS
 10
406.4462702405
 20
609.7047499521
 11
396.4462702405
 21
609.7047499521
  0
LINE
  8
BEZUGSACHSEN
 62
7
  6
CONTINUOUS
 10
253.8726771117
 20
609.7047499521
 11
243.8726771117
 21
609.7047499521
  0
LINE
  8
BEZUGSACHSEN
 62
7
  6
CONTINUOUS
 10
211.4462702405
 20
609.7047499521
 11
201.4462702405
 21
609.7047499521
  0
LINE
  8
0
 62
9
  6
CONTINUOUS
 10
578.8726771117
 20
607.8047499527
 11
574.368313844
 21
607.883373906
  0
LINE
  8
0
 62
7
  6
CONTINUOUS
 10
578.6368232154
 20
607.7309995213
 11
578.0319508746
 21
607.7461244159
  0
LINE
  8
0
 62
7
  6
CONTINUOUS
 10
578.0319508746
 20
607.7461244159
 11
577.5127787692
 21
607.7596687914
  0
LINE
  8
0
 62
7
  6
CONTINUOUS
 10
577.5127787692
 20
607.7596687914
 11
576.9658864052
 21
607.7746255058
  0
LINE
  8
0
 62
7
  6
CONTINUOUS
 10
576.9658864052
 20
607.7746255058
 11
576.51366431
 21
607.7876643079
  0
LINE
  8
0
 62
7
  6
CONTINUOUS
 10
576.51366431
 20
607.7876643079
 11
576.139534556
 21
607.799043305
  0
LINE
  8
0
 62
7
  6
CONTINUOUS
 10
576.139534556
 20
607.799043305
 11
575.7749028847
 21
607.8108136019
  0
LINE
  8
0
 62
7
  6
CONTINUOUS
 10
575.7749028847
 20
607.8108136019
 11
575.4843350727
 21
607.8208426661
  0
LINE
  8
0
 62
7
  6
CONTINUOUS
 10
575.4843350727
 20
607.8208426661
 11
575.2190880713
 21
607.8307070301
  0
LINE
  8
0
 62
7
  6
CONTINUOUS
 10
575.2190880713
 20
607.8307070301
 11
575.0157594702
 21
607.83893137
  0
LINE
  8
0
 62
7
  6
CONTINUOUS
 10
575.0157594702
 20
607.83893137
 11
574.8598938494
 21
607.8458144963
  0
LINE
  8
0
 62
7
  6
CONTINUOUS
 10
284.7226771117
 20
673.9047499521
 11
284.7226771117
 21
633.4047499521
  0
LINE
  8
0
 62
7
  6
CONTINUOUS
 10
574.9924514571
 20
676.4125374826
 11
575.0648097136
 21
676.4242607304
  0
LINE
  8
0
 62
7
  6
CONTINUOUS
 10
575.0648097136
 20
676.4242607304
 11
575.1438861523
 21
676.4363968805
  0
LINE
  8
0
 62
7
  6
CONTINUOUS
 10
575.1438861523
 20
676.4363968805
 11
575.2302528999
 21
676.4489660781
  0
LINE
  8
0
 62
7
  6
CONTINUOUS
 10
575.2302528999
 20
676.4489660781
 11
575.3245138191
 21
676.4619866589
  0
LINE
  8
0
 62
7
  6
CONTINUOUS
 10
575.3245138191
 20
676.4619866589
 11
575.4273369303
 21
676.4754796223
  0
LINE
  8
0
 62
7
  6
CONTINUOUS
 10
575.4273369303
 20
676.4754796223
 11
575.5394445605
 21
676.489466435
  0
LINE
  8
0
 62
7
  6
CONTINUOUS
 10
575.5394445605
 20
676.489466435
 11
575.6616233065
 21
676.5039697466
  0
LINE
  8
0
 62
7
  6
CONTINUOUS
 10
575.6616233065
 20
676.5039697466
 11
575.7947115757
 21
676.5190115132
  0
LINE
  8
0
 62
7
  6
CONTINUOUS
 10
575.7947115757
 20
676.5190115132
 11
575.9396641784
 21
676.5346193585
  0
LINE
  8
0
 62
7
  6
CONTINUOUS
 10
575.9396641784
 20
676.5346193585
 11
576.0975532363
 21
676.550825361
  0
LINE
  8
KONSTRUKTIONSELEMENTE
 62
7
  6
CONTINUOUS
 10
696.8726771117
 20
630.7047499521
 11
694.8726771117
 21
630.7047499521
  0
LINE
  8
KONSTRUKTIONSELEMENTE
 62
7
  6
CONTINUOUS
 10
519.8659217517
 20
630.7047499521
 11
566.8726771117
 21
630.7047499521
  0
LINE
  8
KONSTRUKTIONSELEMENTE
 62
7
  6
CONTINUOUS
 10
591.4726771117
 20
630.7047499521
 11
694.3726771117
 21
630.7047499521
  0
LINE
  8
KONSTRUKTIONSELEMENTE
 62
7
  6
CONTINUOUS
 10
202.8726771117
 20
631.0047499521
 11
200.8726771117
 21
631.0047499521
  0
LINE
  8
0
 62
7
  6
CONTINUOUS
 10
284.7226771117
 20
633.4047499521
 11
306.2726771117
 21
633.4047499521
  0
LINE
  8
0
 62
7
  6
CONTINUOUS
 10
330.8726771117
 20
633.4047499521
 11
371.7226771117
 21
633.4047499521
  0
LINE
  8
0
 62
7
  6
CONTINUOUS
 10
414.2595239815
 20
633.4047499521
 11
436.8726771117
 21
633.4047499521
  0
LINE
  8
0
 62
7
  6
CONTINUOUS
 10
461.4726771117
 20
633.4047499521
 11
475.7778139447
 21
633.4047499521
  0
LINE
  8
0
 62
7
  6
CONTINUOUS
 10
574.8598938494
 20
607.8458144963
 11
574.7404168631
 21
607.8515991865
  0
LINE
  8
0
 62
7
  6
CONTINUOUS
 10
574.7404168631
 20
607.8515991865
 11
574.660517164
 21
607.855832026
  0
LINE
  8
0
 62
7
  6
CONTINUOUS
 10
574.660517164
 20
607.855832026
 11
574.5969694469
 21
607.8595030362
  0
LINE
  8
0
 62
7
  6
CONTINUOUS
 10
574.5969694469
 20
607.8595030362
 11
574.5540966061
 21
607.8621948165
  0
LINE
  8
0
 62
7
  6
CONTINUOUS
 10
574.5540966061
 20
607.8621948165
 11
574.5187185328
 21
607.8645976416
  0
LINE
  8
0
 62
7
  6
CONTINUOUS
 10
574.5187185328
 20
607.8645976416
 11
574.4949186145
 21
607.8663381652
  0
LINE
  8
0
 62
7
  6
CONTINUOUS
 10
574.4949186145
 20
607.8663381652
 11
574.4745110602
 21
607.86793566
  0
LINE
  8
0
 62
7
  6
CONTINUOUS
 10
574.4745110602
 20
607.86793566
 11
574.4611413494
 21
607.8690491743
  0
LINE
  8
0
 62
7
  6
CONTINUOUS
 10
574.4611413494
 20
607.8690491743
 11
574.4492367824
 21
607.8700964354
  0
LINE
  8
0
 62
7
  6
CONTINUOUS
 10
574.4492367824
 20
607.8700964354
 11
574.4386417734
 21
607.8710827658
  0
LINE
  8
0
 62
7
  6
CONTINUOUS
 10
574.4386417734
 20
607.8710827658
 11
574.4292067016
 21
607.8720141682
  0
LINE
  8
0
 62
7
  6
CONTINUOUS
 10
574.4292067016
 20
607.8720141682
 11
574.4208081551
 21
607.8728954306
  0
LINE
  8
0
 62
7
  6
CONTINUOUS
 10
574.4208081551
 20
607.8728954306
 11
574.4157298907
 21
607.8734573414
  0
LINE
  8
0
 62
7
  6
CONTINUOUS
 10
574.4157298907
 20
607.8734573414
 11
574.4110333382
 21
607.8740002941
  0
LINE
  8
0
 62
7
  6
CONTINUOUS
 10
574.4110333382
 20
607.8740002941
 11
574.406691022
 21
607.8745255617
  0
LINE
  8
0
 62
7
  6
CONTINUOUS
 10
574.406691022
 20
607.8745255617
 11
574.4026775213
 21
607.875034397
  0
LINE
  8
0
 62
7
  6
CONTINUOUS
 10
574.4026775213
 20
607.875034397
 11
574.3989693134
 21
607.875528045
  0
LINE
  8
0
 62
7
  6
CONTINUOUS
 10
574.3989693134
 20
607.875528045
 11
574.3955446451
 21
607.8760077557
  0
LINE
  8
0
 62
7
  6
CONTINUOUS
 10
306.2726771117
 20
680.2047499521
 11
306.2726771117
 21
607.7047499521
  0
LINE
  8
0
 62
7
  6
CONTINUOUS
 10
576.0975532363
 20
676.550825361
 11
576.2694634569
 21
676.5676544782
  0
LINE
  8
0
 62
7
  6
CONTINUOUS
 10
576.2694634569
 20
676.5676544782
 11
576.45654343
 21
676.5851302526
  0
LINE
  8
0
 62
7
  6
CONTINUOUS
 10
576.45654343
 20
676.5851302526
 11
576.6600666687
 21
676.6032802491
  0
LINE
  8
0
 62
7
  6
CONTINUOUS
 10
576.6600666687
 20
676.6032802491
 11
576.8814000425
 21
676.6221322145
  0
LINE
  8
0
 62
7
  6
CONTINUOUS
 10
576.8814000425
 20
676.6221322145
 11
577.1220674192
 21
676.6417185568
  0
LINE
  8
0
 62
7
  6
CONTINUOUS
 10
577.1220674192
 20
676.6417185568
 11
577.3837813068
 21
676.662077534
  0
LINE
  8
0
 62
7
  6
CONTINUOUS
 10
577.3837813068
 20
676.662077534
 11
577.6683284974
 21
676.6832432248
  0
LINE
  8
0
 62
7
  6
CONTINUOUS
 10
577.6683284974
 20
676.6832432248
 11
577.9775708258
 21
676.7052458462
  0
LINE
  8
0
 62
7
  6
CONTINUOUS
 10
577.9775708258
 20
676.7052458462
 11
578.3135671222
 21
676.7281202766
  0
POLYLINE
  8
0
 62
7
  6
CONTINUOUS
 66
1
 70
0
  0
VERTEX
  8
0
 62
7
  6
CONTINUOUS
 10
578.3135671222
 20
676.7281202766
  0
VERTEX
  8
0
 62
7
  6
CONTINUOUS
 10
578.6787164528
 20
676.7519064031
  0
VERTEX
  8
0
 62
7
  6
CONTINUOUS
 10
578.8726771117
 20
676.7641484376
  0
SEQEND
  0
LINE
  8
0
 62
7
  6
CONTINUOUS
 10
669.3726771117
 20
650.5047499521
 11
591.4726771117
 21
650.5047499521
  0
LINE
  8
0
 62
7
  6
CONTINUOUS
 10
566.8726771117
 20
650.5047499521
 11
519.8659217517
 21
650.5047499521
  0
LINE
  8
0
 62
7
  6
CONTINUOUS
 10
475.7778139447
 20
650.5047499521
 11
461.4726771117
 21
650.5047499521
  0
LINE
  8
0
 62
7
  6
CONTINUOUS
 10
436.8726771117
 20
650.5047499521
 11
431.6543507987
 21
650.5047499521
  0
LINE
  8
0
 62
7
  6
CONTINUOUS
 10
371.7226771117
 20
650.5047499521
 11
330.8726771117
 21
650.5047499521
  0
LINE
  8
0
 62
7
  6
CONTINUOUS
 10
306.2726771117
 20
650.5047499521
 11
284.7226771117
 21
650.5047499521
  0
LINE
  8
0
 62
7
  6
CONTINUOUS
 10
202.8726771117
 20
650.5047499521
 11
213.3726771117
 21
650.5047499521
  0
LINE
  8
0
 62
7
  6
CONTINUOUS
 10
684.3726771117
 20
650.5047499521
 11
694.8726771117
 21
650.5047499521
  0
LINE
  8
0
 62
7
  6
CONTINUOUS
 10
669.3726771117
 20
663.5047499521
 11
591.4726771117
 21
663.5047499521
  0
LINE
  8
0
 62
7
  6
CONTINUOUS
 10
566.8726771117
 20
663.5047499521
 11
519.8659217517
 21
663.5047499521
  0
LINE
  8
0
 62
7
  6
CONTINUOUS
 10
475.7778139447
 20
663.5047499521
 11
461.4726771117
 21
663.5047499521
  0
LINE
  8
0
 62
7
  6
CONTINUOUS
 10
436.8726771117
 20
663.5047499521
 11
431.6543507987
 21
663.5047499521
  0
LINE
  8
0
 62
7
  6
CONTINUOUS
 10
371.7226771117
 20
663.5047499521
 11
330.8726771117
 21
663.5047499521
  0
LINE
  8
0
 62
7
  6
CONTINUOUS
 10
306.2726771117
 20
663.5047499521
 11
284.7226771117
 21
663.5047499521
  0
LINE
  8
0
 62
7
  6
CONTINUOUS
 10
227.0726771117
 20
663.5047499521
 11
213.3726771117
 21
663.5047499521
  0
LINE
  8
0
 62
7
  6
CONTINUOUS
 10
670.6726771117
 20
663.5047499521
 11
684.3726771117
 21
663.5047499521
  0
LINE
  8
0
 62
7
  6
CONTINUOUS
 10
475.7778139447
 20
673.9047499521
 11
461.4726771117
 21
673.9047499521
  0
LINE
  8
0
 62
7
  6
CONTINUOUS
 10
436.8726771117
 20
673.9047499521
 11
414.2595239815
 21
673.9047499521
  0
LINE
  8
0
 62
7
  6
CONTINUOUS
 10
371.7226771117
 20
673.9047499521
 11
330.8726771117
 21
673.9047499521
  0
LINE
  8
0
 62
7
  6
CONTINUOUS
 10
306.2726771117
 20
673.9047499521
 11
284.7226771117
 21
673.9047499521
  0
POLYLINE
  8
0
 62
7
  6
CONTINUOUS
 66
1
 70
0
  0
VERTEX
  8
0
 62
7
  6
CONTINUOUS
 10
574.3955446451
 20
607.8760077557
  0
VERTEX
  8
0
 62
7
  6
CONTINUOUS
 10
574.3923833877
 20
607.8764748048
  0
VERTEX
  8
0
 62
7
  6
CONTINUOUS
 10
574.3908956212
 20
607.8767039931
  0
VERTEX
  8
0
 62
7
  6
CONTINUOUS
 10
574.3894671509
 20
607.8769304793
  0
VERTEX
  8
0
 62
7
  6
CONTINUOUS
 10
574.3880962005
 20
607.8771543536
  0
VERTEX
  8
0
 62
7
  6
CONTINUOUS
 10
574.3867802629
 20
607.8773759117
  0
VERTEX
  8
0
 62
7
  6
CONTINUOUS
 10
574.3855168159
 20
607.8775954024
  0
VERTEX
  8
0
 62
7
  6
CONTINUOUS
 10
574.3843041288
 20
607.8778130563
  0
VERTEX
  8
0
 62
7
  6
CONTINUOUS
 10
574.3831401015
 20
607.878029109
  0
VERTEX
  8
0
 62
7
  6
CONTINUOUS
 10
574.3820233197
 20
607.8782437944
  0
VERTEX
  8
0
 62
7
  6
CONTINUOUS
 10
574.380952155
 20
607.8784573173
  0
VERTEX
  8
0
 62
7
  6
CONTINUOUS
 10
574.3799251499
 20
607.8786700012
  0
VERTEX
  8
0
 62
7
  6
CONTINUOUS
 10
574.3789407031
 20
607.8788821093
  0
VERTEX
  8
0
 62
7
  6
CONTINUOUS
 10
574.3779976189
 20
607.8790940283
  0
VERTEX
  8
0
 62
7
  6
CONTINUOUS
 10
574.3770945024
 20
607.8793060617
  0
VERTEX
  8
0
 62
7
  6
CONTINUOUS
 10
574.3762303504
 20
607.8795187225
  0
VERTEX
  8
0
 62
7
  6
CONTINUOUS
 10
574.37540394
 20
607.8797323853
  0
VERTEX
  8
0
 62
7
  6
CONTINUOUS
 10
574.3746145353
 20
607.8799477678
  0
VERTEX
  8
0
 62
7
  6
CONTINUOUS
 10
574.3738610769
 20
607.8801653621
  0
VERTEX
  8
0
 62
7
  6
CONTINUOUS
 10
574.3731433117
 20
607.8803862199
  0
VERTEX
  8
0
 62
7
  6
CONTINUOUS
 10
574.3724604512
 20
607.8806109883
  0
VERTEX
  8
0
 62
7
  6
CONTINUOUS
 10
574.3718130424
 20
607.8808413741
  0
VERTEX
  8
0
 62
7
  6
CONTINUOUS
 10
574.3712007913
 20
607.8810781366
  0
VERTEX
  8
0
 62
7
  6
CONTINUOUS
 10
574.3706254326
 20
607.8813247659
  0
VERTEX
  8
0
 62
7
  6
CONTINUOUS
 10
574.3700858846
 20
607.8815826266
  0
VERTEX
  8
0
 62
7
  6
CONTINUOUS
 10
574.369590304
 20
607.8818588546
  0
VERTEX
  8
0
 62
7
  6
CONTINUOUS
 10
574.3691352103
 20
607.882152105
  0
VERTEX
  8
0
 62
7
  6
CONTINUOUS
 10
574.3687544339
 20
607.8824891846
  0
VERTEX
  8
0
 62
7
  6
CONTINUOUS
 10
574.3684847289
 20
607.8828997463
  0
VERTEX
  8
0
 62
7
  6
CONTINUOUS
 10
574.368313844
 20
607.883373906
  0
SEQEND
  0
LINE
  8
0
 62
7
  6
CONTINUOUS
 10
330.8726771117
 20
680.2047499521
 11
330.8726771117
 21
607.7047499521
  0
LINE
  8
0
 62
9
  6
CONTINUOUS
 10
574.368313844
 20
676.2047499521
 11
583.3770403795
 21
676.2047499521
  0
LINE
  8
0
 62
7
  6
CONTINUOUS
 10
591.4726771117
 20
680.2047499521
 11
566.8726771117
 21
680.2047499521
  0
LINE
  8
0
 62
7
  6
CONTINUOUS
 10
227.0726771117
 20
680.2047499521
 11
519.8659217517
 21
680.2047499521
  0
LINE
  8
0
 62
7
  6
CONTINUOUS
 10
694.8726771117
 20
680.5047499521
 11
670.6726771117
 21
680.5047499521
  0
LINE
  8
0
 62
7
  6
CONTINUOUS
 10
227.0726771117
 20
680.5047499521
 11
202.8726771117
 21
680.5047499521
  0
LINE
  8
KONSTRUKTIONSELEMENTE
 62
3
  6
CONTINUOUS
 10
201.0726771117
 20
680.5047499521
 11
696.6726771117
 21
680.5047499521
  0
LINE
  8
KONSTRUKTIONSELEMENTE
 62
7
  6
CONTINUOUS
 10
694.8726771117
 20
680.7047499521
 11
696.8726771117
 21
680.7047499521
  0
LINE
  8
KONSTRUKTIONSELEMENTE
 62
7
  6
CONTINUOUS
 10
200.8726771117
 20
681.0047499521
 11
202.8726771117
 21
681.0047499521
  0
LINE
  8
KONSTRUKTIONSELEMENTE
 62
7
  6
CONTINUOUS
 10
200.8726771117
 20
681.5047499521
 11
696.6726771117
 21
681.5047499521
  0
LINE
  8
FASEN
 62
7
  6
CONTINUOUS
 10
200.8726771117
 20
681.7047499521
 11
198.8726771117
 21
681.7047499521
  0
LINE
  8
BEZUGSACHSEN
 62
7
  6
CONTINUOUS
 10
696.8726771117
 20
681.7047499521
 11
698.8726771117
 21
681.7047499521
  0
LINE
  8
KONSTRUKTIONSELEMENTE
 62
7
  6
CONTINUOUS
 10
696.8726771117
 20
683.7047499521
 11
200.8726771117
 21
683.7047499521
  0
LINE
  8
FASEN
 62
7
  6
CONTINUOUS
 10
200.8726771117
 20
683.7047499521
 11
198.8726771117
 21
683.7047499521
  0
LINE
  8
KONSTRUKTIONSELEMENTE
 62
3
  6
CONTINUOUS
 10
198.8726771117
 20
683.7047499521
 11
50.8726771117
 21
683.7047499521
  0
LINE
  8
BEZUGSACHSEN
 62
7
  6
CONTINUOUS
 10
696.8726771117
 20
683.7047499521
 11
698.8726771117
 21
683.7047499521
  0
LINE
  8
0
 62
7
  6
CONTINUOUS
 10
579.253055821
 20
676.7398962565
 11
578.8726771117
 21
676.7641484376
  0
LINE
  8
0
 62
7
  6
CONTINUOUS
 10
579.603264096
 20
676.7165716276
 11
579.253055821
 21
676.7398962565
  0
LINE
  8
0
 62
7
  6
CONTINUOUS
 10
579.9256085222
 20
676.6941380944
 11
579.603264096
 21
676.7165716276
  0
LINE
  8
0
 62
7
  6
CONTINUOUS
 10
580.22226338
 20
676.6725577026
 11
579.9256085222
 21
676.6941380944
  0
LINE
  8
0
 62
7
  6
CONTINUOUS
 10
580.4951714074
 20
676.6517989489
 11
580.22226338
 21
676.6725577026
  0
LINE
  8
0
 62
7
  6
CONTINUOUS
 10
580.7461378979
 20
676.6318312245
 11
580.4951714074
 21
676.6517989489
  0
LINE
  8
0
 62
7
  6
CONTINUOUS
 10
580.9769315008
 20
676.6126169485
 11
580.7461378979
 21
676.6318312245
  0
POLYLINE
  8
0
 62
7
  6
CONTINUOUS
 66
1
 70
0
  0
VERTEX
  8
0
 62
7
  6
CONTINUOUS
 10
581.2888107934
 20
676.5851302526
  0
VERTEX
  8
0
 62
7
  6
CONTINUOUS
 10
581.1891862859
 20
676.5941191761
  0
VERTEX
  8
0
 62
7
  6
CONTINUOUS
 10
580.9769315008
 20
676.6126169485
  0
SEQEND
  0
LINE
  8
0
 62
7
  6
CONTINUOUS
 10
371.7226771117
 20
633.4047499521
 11
371.7226771117
 21
673.9047499521
  0
LINE
  8
0
 62
7
  6
CONTINUOUS
 10
375.4747170334
 20
680.2047499521
 11
375.4747170334
 21
607.7047499521
  0
LINE
  8
0
 62
7
  6
CONTINUOUS
 10
581.4758907665
 20
676.5676544782
 11
581.2888107934
 21
676.5851302526
  0
LINE
  8
0
 62
7
  6
CONTINUOUS
 10
581.6478009872
 20
676.550825361
 11
581.4758907665
 21
676.5676544782
  0
LINE
  8
0
 62
7
  6
CONTINUOUS
 10
581.8056900451
 20
676.5346193585
 11
581.6478009872
 21
676.550825361
  0
LINE
  8
0
 62
7
  6
CONTINUOUS
 10
581.9506426477
 20
676.5190115132
 11
581.8056900451
 21
676.5346193585
  0
LINE
  8
0
 62
7
  6
CONTINUOUS
 10
582.0837309169
 20
676.5039697466
 11
581.9506426477
 21
676.5190115132
  0
LINE
  8
0
 62
7
  6
CONTINUOUS
 10
582.2059096629
 20
676.489466435
 11
582.0837309169
 21
676.5039697466
  0
LINE
  8
0
 62
7
  6
CONTINUOUS
 10
582.3180172931
 20
676.4754796223
 11
582.2059096629
 21
676.489466435
  0
LINE
  8
0
 62
7
  6
CONTINUOUS
 10
582.4208404044
 20
676.4619866589
 11
582.3180172931
 21
676.4754796223
  0
LINE
  8
0
 62
7
  6
CONTINUOUS
 10
582.5151013235
 20
676.4489660781
 11
582.4208404044
 21
676.4619866589
  0
LINE
  8
0
 62
7
  6
CONTINUOUS
 10
582.6014680712
 20
676.4363968805
 11
582.5151013235
 21
676.4489660781
  0
LINE
  8
0
 62
7
  6
CONTINUOUS
 10
582.6805445099
 20
676.4242607304
 11
582.6014680712
 21
676.4363968805
  0
LINE
  8
BEZUGSACHSEN
 62
7
  6
CONTINUOUS
 10
396.4462702405
 20
609.7047499521
 11
396.4462702405
 21
607.8047499521
  0
LINE
  8
BEZUGSACHSEN
 62
7
  6
CONTINUOUS
 10
406.4462702405
 20
609.7047499521
 11
406.4462702405
 21
607.8047499521
  0
LINE
  8
0
 62
7
  6
CONTINUOUS
 10
414.2595239815
 20
673.9047499521
 11
414.2595239815
 21
633.4047499521
  0
LINE
  8
0
 62
7
  6
CONTINUOUS
 10
431.6543507987
 20
673.9047499521
 11
431.6543507987
 21
633.4047499521
  0
LINE
  8
BEZUGSACHSEN
 62
7
  6
CONTINUOUS
 10
433.8726771117
 20
607.8047499521
 11
433.8726771117
 21
609.7047499521
  0
LINE
  8
0
 62
7
  6
CONTINUOUS
 10
436.8726771117
 20
607.7047499521
 11
436.8726771117
 21
680.2047499521
  0
LINE
  8
BEZUGSACHSEN
 62
7
  6
CONTINUOUS
 10
450.8726771117
 20
609.7047499521
 11
450.8726771117
 21
607.8047499521
  0
LINE
  8
BEZUGSACHSEN
 62
7
  6
CONTINUOUS
 10
460.8726771117
 20
609.7047499521
 11
460.8726771117
 21
607.8047499521
  0
LINE
  8
0
 62
7
  6
CONTINUOUS
 10
461.4726771117
 20
607.7047499521
 11
461.4726771117
 21
680.2047499521
  0
LINE
  8
0
 62
7
  6
CONTINUOUS
 10
475.7778139447
 20
633.4047499521
 11
475.7778139447
 21
673.9047499521
  0
LINE
  8
0
 62
7
  6
CONTINUOUS
 10
502.4710949345
 20
607.7047499521
 11
502.4710949345
 21
680.2047499521
  0
LINE
  8
0
 62
7
  6
CONTINUOUS
 10
519.8659217517
 20
607.7047499521
 11
519.8659217517
 21
680.2047499521
  0
LINE
  8
0
 62
7
  6
CONTINUOUS
 10
566.8726771117
 20
607.7047499521
 11
566.8726771117
 21
680.2047499521
  0
POLYLINE
  8
0
 62
7
  6
CONTINUOUS
 66
1
 70
0
  0
VERTEX
  8
0
 62
7
  6
CONTINUOUS
 10
583.3770403795
 20
676.2047499521
  0
VERTEX
  8
0
 62
7
  6
CONTINUOUS
 10
583.3769242608
 20
676.2077330366
  0
VERTEX
  8
0
 62
7
  6
CONTINUOUS
 10
583.376509165
 20
676.2108098425
  0
VERTEX
  8
0
 62
7
  6
CONTINUOUS
 10
583.3758068347
 20
676.2139827753
  0
VERTEX
  8
0
 62
7
  6
CONTINUOUS
 10
583.3747820417
 20
676.2172446186
  0
VERTEX
  8
0
 62
7
  6
CONTINUOUS
 10
583.3734121993
 20
676.2205877792
  0
VERTEX
  8
0
 62
7
  6
CONTINUOUS
 10
583.3716711244
 20
676.2240157935
  0
VERTEX
  8
0
 62
7
  6
CONTINUOUS
 10
583.3695260736
 20
676.2275380096
  0
VERTEX
  8
0
 62
7
  6
CONTINUOUS
 10
583.366974141
 20
676.2311293995
  0
VERTEX
  8
0
 62
7
  6
CONTINUOUS
 10
583.3640023969
 20
676.2347701437
  0
VERTEX
  8
0
 62
7
  6
CONTINUOUS
 10
583.3606081683
 20
676.238453965
  0
VERTEX
  8
0
 62
7
  6
CONTINUOUS
 10
583.3567858877
 20
676.2421685776
  0
VERTEX
  8
0
 62
7
  6
CONTINUOUS
 10
583.3525313093
 20
676.2459121881
  0
VERTEX
  8
0
 62
7
  6
CONTINUOUS
 10
583.3478397178
 20
676.2496793215
  0
VERTEX
  8
0
 62
7
  6
CONTINUOUS
 10
583.342706955
 20
676.2534687375
  0
VERTEX
  8
0
 62
7
  6
CONTINUOUS
 10
583.3371300601
 20
676.2572768888
  0
VERTEX
  8
0
 62
7
  6
CONTINUOUS
 10
583.3311007251
 20
676.2611052214
  0
VERTEX
  8
0
 62
7
  6
CONTINUOUS
 10
583.3246130905
 20
676.2649534572
  0
VERTEX
  8
0
 62
7
  6
CONTINUOUS
 10
583.3176568503
 20
676.2688232216
  0
VERTEX
  8
0
 62
7
  6
CONTINUOUS
 10
583.3102263956
 20
676.2727143531
  0
VERTEX
  8
0
 62
7
  6
CONTINUOUS
 10
583.3023017755
 20
676.2766319348
  0
VERTEX
  8
0
 62
7
  6
CONTINUOUS
 10
583.2938662189
 20
676.2805806041
  0
VERTEX
  8
0
 62
7
  6
CONTINUOUS
 10
583.284904577
 20
676.284561536
  0
VERTEX
  8
0
 62
7
  6
CONTINUOUS
 10
583.275402368
 20
676.2885767605
  0
VERTEX
  8
0
 62
7
  6
CONTINUOUS
 10
583.2653408202
 20
676.2926283494
  0
VERTEX
  8
0
 62
7
  6
CONTINUOUS
 10
583.2547033755
 20
676.2967183491
  0
VERTEX
  8
0
 62
7
  6
CONTINUOUS
 10
583.2434689118
 20
676.3008488658
  0
VERTEX
  8
0
 62
7
  6
CONTINUOUS
 10
583.2316198032
 20
676.3050216247
  0
VERTEX
  8
0
 62
7
  6
CONTINUOUS
 10
583.2191290039
 20
676.3092398151
  0
VERTEX
  8
0
 62
7
  6
CONTINUOUS
 10
583.2059735991
 20
676.3135062054
  0
VERTEX
  8
0
 62
7
  6
CONTINUOUS
 10
583.19212357
 20
676.3178237831
  0
VERTEX
  8
0
 62
7
  6
CONTINUOUS
 10
583.1775502866
 20
676.3221960381
  0
VERTEX
  8
0
 62
7
  6
CONTINUOUS
 10
583.162226668
 20
676.3266242314
  0
VERTEX
  8
0
 62
7
  6
CONTINUOUS
 10
583.1461269968
 20
676.3311100499
  0
VERTEX
  8
0
 62
7
  6
CONTINUOUS
 10
583.1292185534
 20
676.3356557047
  0
VERTEX
  8
0
 62
7
  6
CONTINUOUS
 10
583.1114718954
 20
676.3402632527
  0
VERTEX
  8
0
 62
7
  6
CONTINUOUS
 10
583.0928514741
 20
676.3449348445
  0
VERTEX
  8
0
 62
7
  6
CONTINUOUS
 10
583.0733244873
 20
676.3496726738
  0
VERTEX
  8
0
 62
7
  6
CONTINUOUS
 10
583.0528532531
 20
676.3544786683
  0
VERTEX
  8
0
 62
7
  6
CONTINUOUS
 10
583.0314044903
 20
676.3593544859
  0
VERTEX
  8
0
 62
7
  6
CONTINUOUS
 10
583.0089321946
 20
676.36430313
  0
VERTEX
  8
0
 62
7
  6
CONTINUOUS
 10
582.9853964215
 20
676.3693271023
  0
VERTEX
  8
0
 62
7
  6
CONTINUOUS
 10
582.9607457111
 20
676.3744295665
  0
VERTEX
  8
0
 62
7
  6
CONTINUOUS
 10
582.9349300677
 20
676.3796142017
  0
VERTEX
  8
0
 62
7
  6
CONTINUOUS
 10
582.9079051539
 20
676.3848819645
  0
VERTEX
  8
0
 62
7
  6
CONTINUOUS
 10
582.8796290228
 20
676.3902341158
  0
VERTEX
  8
0
 62
7
  6
CONTINUOUS
 10
582.8500445066
 20
676.3956734227
  0
VERTEX
  8
0
 62
7
  6
CONTINUOUS
 10
582.8191000401
 20
676.4012023384
  0
VERTEX
  8
0
 62
7
  6
CONTINUOUS
 10
582.7867368681
 20
676.4068230653
  0
VERTEX
  8
0
 62
7
  6
CONTINUOUS
 10
582.7529027663
 20
676.4125374826
  0
VERTEX
  8
0
 62
7
  6
CONTINUOUS
 10
582.6805445099
 20
676.4242607304
  0
SEQEND
  0
LINE
  8
0
 62
7
  6
CONTINUOUS
 10
574.368313844
 20
607.883373906
 11
574.368313844
 21
676.2047499521
  0
LINE
  8
0
 62
7
  6
CONTINUOUS
 10
578.6368232154
 20
607.7309995213
 11
578.6368232154
 21
607.7196208002
  0
LINE
  8
KONSTRUKTIONSELEMENTE
 62
7
  6
CONTINUOUS
 10
578.8726771117
 20
607.8047499527
 11
578.8726771117
 21
676.2047499521
  0
LINE
  8
0
 62
7
  6
CONTINUOUS
 10
578.8726771117
 20
676.2047499521
 11
578.8726771117
 21
676.7641484376
  0
LINE
  8
0
 62
7
  6
CONTINUOUS
 10
583.3770403795
 20
676.2047499521
 11
583.3770403795
 21
607.883373906
  0
LINE
  8
0
 62
7
  6
CONTINUOUS
 10
591.4726771117
 20
607.7047499521
 11
591.4726771117
 21
680.2047499521
  0
POLYLINE
  8
0
 62
7
  6
CONTINUOUS
 66
1
 70
0
  0
VERTEX
  8
0
 62
7
  6
CONTINUOUS
 10
574.368313844
 20
676.2047499521
  0
VERTEX
  8
0
 62
7
  6
CONTINUOUS
 10
574.3684299626
 20
676.2077330366
  0
VERTEX
  8
0
 62
7
  6
CONTINUOUS
 10
574.3688450585
 20
676.2108098425
  0
VERTEX
  8
0
 62
7
  6
CONTINUOUS
 10
574.3695473887
 20
676.2139827753
  0
VERTEX
  8
0
 62
7
  6
CONTINUOUS
 10
574.3705721818
 20
676.2172446186
  0
VERTEX
  8
0
 62
7
  6
CONTINUOUS
 10
574.3719420241
 20
676.2205877792
  0
VERTEX
  8
0
 62
7
  6
CONTINUOUS
 10
574.373683099
 20
676.2240157935
  0
VERTEX
  8
0
 62
7
  6
CONTINUOUS
 10
574.3758281498
 20
676.2275380096
  0
VERTEX
  8
0
 62
7
  6
CONTINUOUS
 10
574.3783800825
 20
676.2311293995
  0
VERTEX
  8
0
 62
7
  6
CONTINUOUS
 10
574.3813518266
 20
676.2347701437
  0
VERTEX
  8
0
 62
7
  6
CONTINUOUS
 10
574.3847460551
 20
676.238453965
  0
VERTEX
  8
0
 62
7
  6
CONTINUOUS
 10
574.3885683358
 20
676.2421685776
  0
VERTEX
  8
0
 62
7
  6
CONTINUOUS
 10
574.3928229142
 20
676.2459121881
  0
VERTEX
  8
0
 62
7
  6
CONTINUOUS
 10
574.3975145056
 20
676.2496793215
  0
VERTEX
  8
0
 62
7
  6
CONTINUOUS
 10
574.4026472684
 20
676.2534687375
  0
VERTEX
  8
0
 62
7
  6
CONTINUOUS
 10
574.4082241634
 20
676.2572768888
  0
VERTEX
  8
0
 62
7
  6
CONTINUOUS
 10
574.4142534983
 20
676.2611052214
  0
VERTEX
  8
0
 62
7
  6
CONTINUOUS
 10
574.420741133
 20
676.2649534572
  0
VERTEX
  8
0
 62
7
  6
CONTINUOUS
 10
574.4276973732
 20
676.2688232216
  0
VERTEX
  8
0
 62
7
  6
CONTINUOUS
 10
574.4351278278
 20
676.2727143531
  0
VERTEX
  8
0
 62
7
  6
CONTINUOUS
 10
574.4430524479
 20
676.2766319348
  0
VERTEX
  8
0
 62
7
  6
CONTINUOUS
 10
574.4514880045
 20
676.2805806041
  0
VERTEX
  8
0
 62
7
  6
CONTINUOUS
 10
574.4604496464
 20
676.284561536
  0
VERTEX
  8
0
 62
7
  6
CONTINUOUS
 10
574.4699518554
 20
676.2885767605
  0
VERTEX
  8
0
 62
7
  6
CONTINUOUS
 10
574.4800134032
 20
676.2926283494
  0
VERTEX
  8
0
 62
7
  6
CONTINUOUS
 10
574.490650848
 20
676.2967183491
  0
VERTEX
  8
0
 62
7
  6
CONTINUOUS
 10
574.5018853116
 20
676.3008488658
  0
VERTEX
  8
0
 62
7
  6
CONTINUOUS
 10
574.5137344203
 20
676.3050216247
  0
VERTEX
  8
0
 62
7
  6
CONTINUOUS
 10
574.5262252196
 20
676.3092398151
  0
VERTEX
  8
0
 62
7
  6
CONTINUOUS
 10
574.5393806244
 20
676.3135062054
  0
VERTEX
  8
0
 62
7
  6
CONTINUOUS
 10
574.5532306534
 20
676.3178237831
  0
VERTEX
  8
0
 62
7
  6
CONTINUOUS
 10
574.5678039369
 20
676.3221960381
  0
VERTEX
  8
0
 62
7
  6
CONTINUOUS
 10
574.5831275554
 20
676.3266242314
  0
VERTEX
  8
0
 62
7
  6
CONTINUOUS
 10
574.5992272266
 20
676.3311100499
  0
VERTEX
  8
0
 62
7
  6
CONTINUOUS
 10
574.61613567
 20
676.3356557047
  0
VERTEX
  8
0
 62
7
  6
CONTINUOUS
 10
574.633882328
 20
676.3402632527
  0
VERTEX
  8
0
 62
7
  6
CONTINUOUS
 10
574.6525027494
 20
676.3449348445
  0
VERTEX
  8
0
 62
7
  6
CONTINUOUS
 10
574.6720297361
 20
676.3496726738
  0
VERTEX
  8
0
 62
7
  6
CONTINUOUS
 10
574.6925009703
 20
676.3544786683
  0
VERTEX
  8
0
 62
7
  6
CONTINUOUS
 10
574.7139497332
 20
676.3593544859
  0
VERTEX
  8
0
 62
7
  6
CONTINUOUS
 10
574.7364220288
 20
676.36430313
  0
VERTEX
  8
0
 62
7
  6
CONTINUOUS
 10
574.7599578019
 20
676.3693271023
  0
VERTEX
  8
0
 62
7
  6
CONTINUOUS
 10
574.7846085123
 20
676.3744295665
  0
VERTEX
  8
0
 62
7
  6
CONTINUOUS
 10
574.8104241557
 20
676.3796142017
  0
VERTEX
  8
0
 62
7
  6
CONTINUOUS
 10
574.8374490696
 20
676.3848819645
  0
VERTEX
  8
0
 62
7
  6
CONTINUOUS
 10
574.8657252006
 20
676.3902341158
  0
VERTEX
  8
0
 62
7
  6
CONTINUOUS
 10
574.8953097168
 20
676.3956734227
  0
VERTEX
  8
0
 62
7
  6
CONTINUOUS
 10
574.9262541833
 20
676.4012023384
  0
VERTEX
  8
0
 62
7
  6
CONTINUOUS
 10
574.9586173554
 20
676.4068230653
  0
VERTEX
  8
0
 62
7
  6
CONTINUOUS
 10
574.9924514571
 20
676.4125374826
  0
SEQEND
  0
POLYLINE
  8
0
 62
7
  6
CONTINUOUS
 66
1
 70
0
  0
VERTEX
  8
0
 62
7
  6
CONTINUOUS
 10
578.8726771117
 20
607.8047499526
  0
VERTEX
  8
0
 62
7
  6
CONTINUOUS
 10
578.8725931642
 20
607.8029612081
  0
VERTEX
  8
0
 62
7
  6
CONTINUOUS
 10
578.872303836
 20
607.80112499
  0
VERTEX
  8
0
 62
7
  6
CONTINUOUS
 10
578.8718172232
 20
607.799242367
  0
VERTEX
  8
0
 62
7
  6
CONTINUOUS
 10
578.8711090376
 20
607.7973101333
  0
VERTEX
  8
0
 62
7
  6
CONTINUOUS
 10
578.870157063
 20
607.7953175041
  0
VERTEX
  8
0
 62
7
  6
CONTINUOUS
 10
578.8689631798
 20
607.7932882851
  0
VERTEX
  8
0
 62
7
  6
CONTINUOUS
 10
578.8675203138
 20
607.791240865
  0
VERTEX
  8
0
 62
7
  6
CONTINUOUS
 10
578.8658331121
 20
607.7891807093
  0
VERTEX
  8
0
 62
7
  6
CONTINUOUS
 10
578.8639028426
 20
607.7871189414
  0
VERTEX
  8
0
 62
7
  6
CONTINUOUS
 10
578.8617325686
 20
607.7850569755
  0
VERTEX
  8
0
 62
7
  6
CONTINUOUS
 10
578.8593257726
 20
607.7830001441
  0
VERTEX
  8
0
 62
7
  6
CONTINUOUS
 10
578.8566824636
 20
607.7809478145
  0
VERTEX
  8
0
 62
7
  6
CONTINUOUS
 10
578.8538046221
 20
607.7789015014
  0
VERTEX
  8
0
 62
7
  6
CONTINUOUS
 10
578.8506898157
 20
607.7768600955
  0
VERTEX
  8
0
 62
7
  6
CONTINUOUS
 10
578.8473377656
 20
607.7748233833
  0
VERTEX
  8
0
 62
7
  6
CONTINUOUS
 10
578.8437439915
 20
607.7727901925
  0
VERTEX
  8
0
 62
7
  6
CONTINUOUS
 10
578.8399059851
 20
607.7707596254
  0
VERTEX
  8
0
 62
7
  6
CONTINUOUS
 10
578.8358175512
 20
607.7687306445
  0
VERTEX
  8
0
 62
7
  6
CONTINUOUS
 10
578.831474229
 20
607.7667021896
  0
VERTEX
  8
0
 62
7
  6
CONTINUOUS
 10
578.8268683063
 20
607.764673432
  0
VERTEX
  8
0
 62
7
  6
CONTINUOUS
 10
578.8219936236
 20
607.7626433858
  0
VERTEX
  8
0
 62
7
  6
CONTINUOUS
 10
578.8168410607
 20
607.7606114626
  0
VERTEX
  8
0
 62
7
  6
CONTINUOUS
 10
578.8114029396
 20
607.7585768564
  0
VERTEX
  8
0
 62
7
  6
CONTINUOUS
 10
578.8056687733
 20
607.756539235
  0
VERTEX
  8
0
 62
7
  6
CONTINUOUS
 10
578.7996294686
 20
607.7544980181
  0
VERTEX
  8
0
 62
7
  6
CONTINUOUS
 10
578.7932731652
 20
607.7524531441
  0
VERTEX
  8
0
 62
7
  6
CONTINUOUS
 10
578.7865893953
 20
607.7504042816
  0
VERTEX
  8
0
 62
7
  6
CONTINUOUS
 10
578.7795648885
 20
607.7483516607
  0
VERTEX
  8
0
 62
7
  6
CONTINUOUS
 10
578.7721878041
 20
607.7462952185
  0
VERTEX
  8
0
 62
7
  6
CONTINUOUS
 10
578.7644433851
 20
607.7442355031
  0
VERTEX
  8
0
 62
7
  6
CONTINUOUS
 10
578.7563183803
 20
607.7421727413
  0
VERTEX
  8
0
 62
7
  6
CONTINUOUS
 10
578.7477964326
 20
607.7401078348
  0
VERTEX
  8
0
 62
7
  6
CONTINUOUS
 10
578.7388627961
 20
607.7380413248
  0
VERTEX
  8
0
 62
7
  6
CONTINUOUS
 10
578.7294993859
 20
607.7359745197
  0
VERTEX
  8
0
 62
7
  6
CONTINUOUS
 10
578.7196898597
 20
607.7339083138
  0
VERTEX
  8
0
 62
7
  6
CONTINUOUS
 10
578.7094142434
 20
607.7318444906
  0
VERTEX
  8
0
 62
7
  6
CONTINUOUS
 10
578.698654471
 20
607.7297843493
  0
VERTEX
  8
0
 62
7
  6
CONTINUOUS
 10
578.6873884748
 20
607.7277302364
  0
VERTEX
  8
0
 62
7
  6
CONTINUOUS
 10
578.6755962937
 20
607.725683922
  0
VERTEX
  8
0
 62
7
  6
CONTINUOUS
 10
578.6632535427
 20
607.7236484349
  0
VERTEX
  8
0
 62
7
  6
CONTINUOUS
 10
578.6503253035
 20
607.7216278467
  0
VERTEX
  8
0
 62
7
  6
CONTINUOUS
 10
578.6368232154
 20
607.7196208002
  0
SEQEND
  0
POLYLINE
  8
0
 62
7
  6
CONTINUOUS
 66
1
 70
0
  0
VERTEX
  8
0
 62
7
  6
CONTINUOUS
 10
578.8723315374
 20
607.8014520684
  0
VERTEX
  8
0
 62
7
  6
CONTINUOUS
 10
578.8718836811
 20
607.7997561877
  0
VERTEX
  8
0
 62
7
  6
CONTINUOUS
 10
578.8712334328
 20
607.7980251481
  0
VERTEX
  8
0
 62
7
  6
CONTINUOUS
 10
578.8703617258
 20
607.7962485255
  0
VERTEX
  8
0
 62
7
  6
CONTINUOUS
 10
578.8692687233
 20
607.7944459922
  0
VERTEX
  8
0
 62
7
  6
CONTINUOUS
 10
578.8679462825
 20
607.7926313246
  0
VERTEX
  8
0
 62
7
  6
CONTINUOUS
 10
578.8664002546
 20
607.7908117866
  0
VERTEX
  8
0
 62
7
  6
CONTINUOUS
 10
578.8646324279
 20
607.7889987851
  0
VERTEX
  8
0
 62
7
  6
CONTINUOUS
 10
578.8626468482
 20
607.7871936676
  0
VERTEX
  8
0
 62
7
  6
CONTINUOUS
 10
578.8604477222
 20
607.7854017608
  0
VERTEX
  8
0
 62
7
  6
CONTINUOUS
 10
578.8580363557
 20
607.7836225333
  0
VERTEX
  8
0
 62
7
  6
CONTINUOUS
 10
578.8554159099
 20
607.7818576354
  0
VERTEX
  8
0
 62
7
  6
CONTINUOUS
 10
578.8525850248
 20
607.7801058486
  0
VERTEX
  8
0
 62
7
  6
CONTINUOUS
 10
578.8495450367
 20
607.7783671479
  0
VERTEX
  8
0
 62
7
  6
CONTINUOUS
 10
578.8462910188
 20
607.7766396042
  0
VERTEX
  8
0
 62
7
  6
CONTINUOUS
 10
578.8428205393
 20
607.7749216968
  0
VERTEX
  8
0
 62
7
  6
CONTINUOUS
 10
578.8391274493
 20
607.7732121763
  0
VERTEX
  8
0
 62
7
  6
CONTINUOUS
 10
578.8352066434
 20
607.7715093604
  0
VERTEX
  8
0
 62
7
  6
CONTINUOUS
 10
578.8310525596
 20
607.7698130276
  0
VERTEX
  8
0
 62
7
  6
CONTINUOUS
 10
578.8266604345
 20
607.7681225406
  0
VERTEX
  8
0
 62
7
  6
CONTINUOUS
 10
578.8220227677
 20
607.7664374649
  0
VERTEX
  8
0
 62
7
  6
CONTINUOUS
 10
578.8171333547
 20
607.764757224
  0
VERTEX
  8
0
 62
7
  6
CONTINUOUS
 10
578.8119835446
 20
607.7630816061
  0
VERTEX
  8
0
 62
7
  6
CONTINUOUS
 10
578.8065658606
 20
607.7614101964
  0
VERTEX
  8
0
 62
7
  6
CONTINUOUS
 10
578.8008705756
 20
607.7597430267
  0
VERTEX
  8
0
 62
7
  6
CONTINUOUS
 10
578.7948891691
 20
607.7580799199
  0
VERTEX
  8
0
 62
7
  6
CONTINUOUS
 10
578.7886105434
 20
607.7564210883
  0
VERTEX
  8
0
 62
7
  6
CONTINUOUS
 10
578.7820245752
 20
607.7547664654
  0
VERTEX
  8
0
 62
7
  6
CONTINUOUS
 10
578.77511982
 20
607.753116711
  0
VERTEX
  8
0
 62
7
  6
CONTINUOUS
 10
578.7678870015
 20
607.7514724225
  0
VERTEX
  8
0
 62
7
  6
CONTINUOUS
 10
578.7603094913
 20
607.7498337206
  0
VERTEX
  8
0
 62
7
  6
CONTINUOUS
 10
578.7523723835
 20
607.7482004924
  0
VERTEX
  8
0
 62
7
  6
CONTINUOUS
 10
578.7440612339
 20
607.7465740358
  0
VERTEX
  8
0
 62
7
  6
CONTINUOUS
 10
578.7353619057
 20
607.7449550831
  0
VERTEX
  8
0
 62
7
  6
CONTINUOUS
 10
578.7262585703
 20
607.7433452185
  0
VERTEX
  8
0
 62
7
  6
CONTINUOUS
 10
578.7167367272
 20
607.7417456608
  0
VERTEX
  8
0
 62
7
  6
CONTINUOUS
 10
578.7067782565
 20
607.7401582384
  0
VERTEX
  8
0
 62
7
  6
CONTINUOUS
 10
578.6963668383
 20
607.7385844242
  0
VERTEX
  8
0
 62
7
  6
CONTINUOUS
 10
578.685482572
 20
607.7370265038
  0
VERTEX
  8
0
 62
7
  6
CONTINUOUS
 10
578.6741073082
 20
607.7354863023
  0
VERTEX
  8
0
 62
7
  6
CONTINUOUS
 10
578.6622194728
 20
607.7339666735
  0
VERTEX
  8
0
 62
7
  6
CONTINUOUS
 10
578.6497879889
 20
607.7324715127
  0
VERTEX
  8
0
 62
7
  6
CONTINUOUS
 10
578.6368232154
 20
607.7309995213
  0
SEQEND
  0
LINE
  8
BEZUGSACHSEN
 62
7
  6
CONTINUOUS
 10
615.5884058643
 20
609.7047499521
 11
615.5884058643
 21
607.8047499521
  0
LINE
  8
BEZUGSACHSEN
 62
7
  6
CONTINUOUS
 10
625.5884058643
 20
609.7047499521
 11
625.5884058643
 21
607.8047499521
  0
LINE
  8
BEZUGSACHSEN
 62
7
  6
CONTINUOUS
 10
643.8726771117
 20
607.8047499521
 11
643.8726771117
 21
609.7047499521
  0
LINE
  8
BEZUGSACHSEN
 62
7
  6
CONTINUOUS
 10
653.8726771117
 20
607.8047499521
 11
653.8726771117
 21
609.7047499521
  0
LINE
  8
0
 62
7
  6
CONTINUOUS
 10
669.3726771117
 20
680.5047499521
 11
669.3726771117
 21
650.5047499521
  0
LINE
  8
0
 62
7
  6
CONTINUOUS
 10
670.6726771117
 20
680.5047499521
 11
670.6726771117
 21
663.5047499521
  0
LINE
  8
0
 62
7
  6
CONTINUOUS
 10
684.3726771117
 20
663.5047499521
 11
684.3726771117
 21
650.5047499521
  0
LINE
  8
KONSTRUKTIONSELEMENTE
 62
7
  6
CONTINUOUS
 10
694.3726771117
 20
650.5047499521
 11
694.3726771117
 21
630.7047499521
  0
LINE
  8
KONSTRUKTIONSELEMENTE
 62
7
  6
CONTINUOUS
 10
694.8726771117
 20
630.7047499521
 11
694.8726771117
 21
680.7047499521
  0
LINE
  8
KONSTRUKTIONSELEMENTE
 62
9
  6
CONTINUOUS
 10
695.8726771117
 20
605.7047499521
 11
695.8726771117
 21
607.7047499521
  0
LINE
  8
KONSTRUKTIONSELEMENTE
 62
7
  6
CONTINUOUS
 10
695.8726771117
 20
607.7047499521
 11
695.8726771117
 21
608.7047499521
  0
LINE
  8
KONSTRUKTIONSELEMENTE
 62
7
  6
CONTINUOUS
 10
696.6726771117
 20
680.5047499521
 11
696.6726771117
 21
681.5047499521
  0
LINE
  8
BEZUGSACHSEN
 62
7
  6
CONTINUOUS
 10
696.8726771117
 20
608.7047499521
 11
696.8726771117
 21
683.7047499521
  0
LINE
  8
BEZUGSACHSEN
 62
3
  6
CONTINUOUS
 10
698.8726771117
 20
608.7047499521
 11
698.8726771117
 21
683.7047499521
  0
LINE
  8
KONSTRUKTIONSELEMENTE
 62
7
  6
CONTINUOUS
 10
201.8726771117
 20
-130.8789292405
 11
200.8726771117
 21
-130.8789292405
  0
LINE
  8
FASEN
 62
7
  6
CONTINUOUS
 10
200.8726771117
 20
-130.8789292405
 11
198.8726771117
 21
-130.8789292405
  0
LINE
  8
BEZUGSACHSEN
 62
7
  6
CONTINUOUS
 10
201.8726771117
 20
-130.8789292405
 11
695.8726771117
 21
-130.8789292405
  0
LINE
  8
KONSTRUKTIONSELEMENTE
 62
7
  6
CONTINUOUS
 10
695.8726771117
 20
-130.8789292405
 11
696.8726771117
 21
-130.8789292405
  0
LINE
  8
BEZUGSACHSEN
 62
7
  6
CONTINUOUS
 10
696.8726771117
 20
-130.8789292405
 11
698.8726771117
 21
-130.8789292405
  0
LINE
  8
KONSTRUKTIONSELEMENTE
 62
7
  6
CONTINUOUS
 10
200.8726771117
 20
-130.3789292405
 11
696.8726771117
 21
-130.3789292405
  0
LINE
  8
FASEN
 62
7
  6
CONTINUOUS
 10
200.8726771117
 20
-128.8789292405
 11
198.8726771117
 21
-128.8789292405
  0
LINE
  8
BEZUGSACHSEN
 62
7
  6
CONTINUOUS
 10
696.8726771117
 20
-128.8789292405
 11
698.8726771117
 21
-128.8789292405
  0
LINE
  8
BEZUGSACHSEN
 62
7
  6
CONTINUOUS
 10
48.8726771117
 20
516.1210707595
 11
48.8726771117
 21
22.1210707595
  0
LINE
  8
KONSTRUKTIONSELEMENTE
 62
7
  6
CONTINUOUS
 10
48.8726771117
 20
22.1210707595
 11
48.8726771117
 21
21.1210707595
  0
LINE
  8
BEZUGSACHSEN
 62
7
  6
CONTINUOUS
 10
48.8726771117
 20
21.1210707595
 11
48.8726771117
 21
19.1210707595
  0
LINE
  8
KONSTRUKTIONSELEMENTE
 62
7
  6
CONTINUOUS
 10
48.8726771117
 20
516.1210707595
 11
48.8726771117
 21
517.1210707595
  0
LINE
  8
FASEN
 62
7
  6
CONTINUOUS
 10
48.8726771117
 20
517.1210707595
 11
48.8726771117
 21
519.1210707595
  0
LINE
  8
KONSTRUKTIONSELEMENTE
 62
7
  6
CONTINUOUS
 10
49.3726771117
 20
517.1210707595
 11
49.3726771117
 21
21.1210707595
  0
LINE
  8
BEZUGSACHSEN
 62
7
  6
CONTINUOUS
 10
50.8726771117
 20
21.1210707595
 11
50.8726771117
 21
19.1210707595
  0
LINE
  8
FASEN
 62
7
  6
CONTINUOUS
 10
50.8726771117
 20
517.1210707595
 11
50.8726771117
 21
519.1210707595
  0
LINE
  8
KONSTRUKTIONSELEMENTE
 62
3
  6
CONTINUOUS
 10
200.6726771117
 20
19.1210707595
 11
50.8726771117
 21
19.1210707595
  0
LINE
  8
BEZUGSACHSEN
 62
3
  6
CONTINUOUS
 10
48.8726771117
 20
19.1210707595
 11
50.8726771117
 21
19.1210707595
  0
LINE
  8
KONSTRUKTIONSELEMENTE
 62
7
  6
CONTINUOUS
 10
200.6726771117
 20
19.1210707595
 11
200.8726771117
 21
19.1210707595
  0
LINE
  8
BEZUGSACHSEN
 62
7
  6
CONTINUOUS
 10
50.8726771117
 20
21.1210707595
 11
48.8726771117
 21
21.1210707595
  0
LINE
  8
KONSTRUKTIONSELEMENTE
 62
7
  6
CONTINUOUS
 10
50.8726771117
 20
21.1210707595
 11
200.6726771117
 21
21.1210707595
  0
LINE
  8
KONSTRUKTIONSELEMENTE
 62
7
  6
CONTINUOUS
 10
49.3726771117
 20
21.3210707595
 11
201.0726771117
 21
21.3210707595
  0
LINE
  8
KONSTRUKTIONSELEMENTE
 62
9
  6
CONTINUOUS
 10
48.8726771117
 20
22.1210707595
 11
49.3726771117
 21
22.1210707595
  0
LINE
  8
FASEN
 62
3
  6
CONTINUOUS
 10
198.8726771117
 20
-130.8789292405
 11
198.8726771117
 21
-128.8789292405
  0
LINE
  8
KONSTRUKTIONSELEMENTE
 62
3
  6
CONTINUOUS
 10
198.8726771117
 20
-128.8789292405
 11
198.8726771117
 21
19.1210707595
  0
LINE
  8
KONSTRUKTIONSELEMENTE
 62
7
  6
CONTINUOUS
 10
200.3726771117
 20
21.3210707595
 11
200.3726771117
 21
21.1210707595
  0
LINE
  8
KONSTRUKTIONSELEMENTE
 62
7
  6
CONTINUOUS
 10
200.6726771117
 20
19.1210707595
 11
200.6726771117
 21
21.1210707595
  0
LINE
  8
KONSTRUKTIONSELEMENTE
 62
7
  6
CONTINUOUS
 10
200.8726771117
 20
-128.8789292405
 11
200.8726771117
 21
21.3210707595
  0
LINE
  8
FASEN
 62
7
  6
CONTINUOUS
 10
200.8726771117
 20
-128.8789292405
 11
200.8726771117
 21
-130.8789292405
  0
LINE
  8
KONSTRUKTIONSELEMENTE
 62
7
  6
CONTINUOUS
 10
201.0726771117
 20
21.3210707595
 11
201.0726771117
 21
-130.3789292405
  0
LINE
  8
KONSTRUKTIONSELEMENTE
 62
9
  6
CONTINUOUS
 10
201.8726771117
 20
-130.8789292405
 11
201.8726771117
 21
-130.3789292405
  0
LINE
  8
KONSTRUKTIONSELEMENTE
 62
9
  6
CONTINUOUS
 10
48.8726771117
 20
516.1210707595
 11
49.3726771117
 21
516.1210707595
  0
LINE
  8
KONSTRUKTIONSELEMENTE
 62
7
  6
CONTINUOUS
 10
694.3726771117
 20
517.1210707595
 11
694.3726771117
 21
516.9210707595
  0
LINE
  8
KONSTRUKTIONSELEMENTE
 62
9
  6
CONTINUOUS
 10
695.8726771117
 20
-130.8789292405
 11
695.8726771117
 21
-130.3789292405
  0
LINE
  8
KONSTRUKTIONSELEMENTE
 62
7
  6
CONTINUOUS
 10
695.8726771117
 20
516.9210707595
 11
695.8726771117
 21
517.1210707595
  0
LINE
  8
KONSTRUKTIONSELEMENTE
 62
7
  6
CONTINUOUS
 10
696.6726771117
 20
-130.3789292405
 11
696.6726771117
 21
516.9210707595
  0
LINE
  8
BEZUGSACHSEN
 62
7
  6
CONTINUOUS
 10
696.8726771117
 20
-128.8789292405
 11
696.8726771117
 21
-130.8789292405
  0
LINE
  8
KONSTRUKTIONSELEMENTE
 62
7
  6
CONTINUOUS
 10
696.8726771117
 20
-128.8789292405
 11
696.8726771117
 21
517.1210707595
  0
LINE
  8
KONSTRUKTIONSELEMENTE
 62
7
  6
CONTINUOUS
 10
698.6726771117
 20
519.1210707595
 11
698.6726771117
 21
517.1210707595
  0
LINE
  8
BEZUGSACHSEN
 62
3
  6
CONTINUOUS
 10
698.8726771117
 20
-130.8789292405
 11
698.8726771117
 21
-128.8789292405
  0
LINE
  8
KONSTRUKTIONSELEMENTE
 62
3
  6
CONTINUOUS
 10
698.8726771117
 20
-128.8789292405
 11
698.8726771117
 21
517.1210707595
  0
LINE
  8
KONSTRUKTIONSELEMENTE
 62
7
  6
CONTINUOUS
 10
696.6726771117
 20
516.6210707595
 11
696.8726771117
 21
516.6210707595
  0
LINE
  8
KONSTRUKTIONSELEMENTE
 62
7
  6
CONTINUOUS
 10
696.6726771117
 20
516.9210707595
 11
49.3726771117
 21
516.9210707595
  0
LINE
  8
KONSTRUKTIONSELEMENTE
 62
7
  6
CONTINUOUS
 10
698.8726771117
 20
517.1210707595
 11
50.8726771117
 21
517.1210707595
  0
LINE
  8
FASEN
 62
7
  6
CONTINUOUS
 10
50.8726771117
 20
517.1210707595
 11
48.8726771117
 21
517.1210707595
  0
LINE
  8
FASEN
 62
3
  6
CONTINUOUS
 10
48.8726771117
 20
519.1210707595
 11
50.8726771117
 21
519.1210707595
  0
LINE
  8
KONSTRUKTIONSELEMENTE
 62
3
  6
CONTINUOUS
 10
50.8726771117
 20
519.1210707595
 11
698.6726771117
 21
519.1210707595
  0
ARC
  8
KONSTRUKTIONSELEMENTE
 62
3
  6
CONTINUOUS
 10
201.8726771117
 20
608.7047499521
 40
3.0
 50
180.0
 51
270.0
  0
ARC
  8
KONSTRUKTIONSELEMENTE
 62
3
  6
CONTINUOUS
 10
695.8726771117
 20
608.7047499521
 40
3.0
 50
270.0
 51
360.0
  0
ARC
  8
KONSTRUKTIONSELEMENTE
 62
7
  6
CONTINUOUS
 10
201.8726771117
 20
608.7047499521
 40
1.0
 50
180.0
 51
270.0
  0
ARC
  8
KONSTRUKTIONSELEMENTE
 62
7
  6
CONTINUOUS
 10
695.8726771117
 20
608.7047499521
 40
1.0
 50
270.0
 51
360.0
  0
ARC
  8
BEZUGSACHSEN
 62
7
  6
CONTINUOUS
 10
253.9726771117
 20
607.8047499521
 40
0.1
 50
180.0
 51
270.0
  0
ARC
  8
BEZUGSACHSEN
 62
7
  6
CONTINUOUS
 10
243.7726771117
 20
607.8047499521
 40
0.1
 50
270.0
 51
360.0
  0
ARC
  8
BEZUGSACHSEN
 62
7
  6
CONTINUOUS
 10
450.7726771117
 20
607.8047499521
 40
0.1
 50
270.0
 51
360.0
  0
ARC
  8
BEZUGSACHSEN
 62
7
  6
CONTINUOUS
 10
460.9726771117
 20
607.8047499521
 40
0.1
 50
180.0
 51
270.0
  0
ARC
  8
BEZUGSACHSEN
 62
7
  6
CONTINUOUS
 10
653.9726771117
 20
607.8047499521
 40
0.1
 50
180.0
 51
270.0
  0
ARC
  8
BEZUGSACHSEN
 62
7
  6
CONTINUOUS
 10
643.7726771117
 20
607.8047499521
 40
0.1
 50
270.0
 51
360.0
  0
ARC
  8
BEZUGSACHSEN
 62
7
  6
CONTINUOUS
 10
433.7726771117
 20
607.8047499521
 40
0.1
 50
270.0
 51
360.0
  0
ARC
  8
BEZUGSACHSEN
 62
7
  6
CONTINUOUS
 10
396.3462702405
 20
607.8047499521
 40
0.1
 50
270.0
 51
360.0
  0
ARC
  8
BEZUGSACHSEN
 62
7
  6
CONTINUOUS
 10
406.5462702405
 20
607.8047499521
 40
0.1
 50
180.0
 51
270.0
  0
ARC
  8
BEZUGSACHSEN
 62
7
  6
CONTINUOUS
 10
201.3462702405
 20
607.8047499521
 40
0.1
 50
357.5036928984
 51
360.0
  0
ARC
  8
BEZUGSACHSEN
 62
7
  6
CONTINUOUS
 10
211.5462702405
 20
607.8047499521
 40
0.1
 50
180.0
 51
270.0
  0
ARC
  8
BEZUGSACHSEN
 62
7
  6
CONTINUOUS
 10
625.6884058643
 20
607.8047499521
 40
0.1
 50
180.0
 51
270.0
  0
ARC
  8
BEZUGSACHSEN
 62
7
  6
CONTINUOUS
 10
615.4884058643
 20
607.8047499521
 40
0.1
 50
270.0
 51
360.0
  0
ENDSEC
  0
EOF
